» » »

Johnny Winter - Boney Moronie Tabs

Artists:  A B C D E F G H I J K L M N O P Q R S T U V W X Y Z # 

Boney Moronie Tabs

(ver. 1) Click to play this song!
Johnny Winter
 Rating:
3/5 (28 votes)

 Boney Moronie  lessons Tabs too difficult? Try these video lessons and learn fast
 
                 Intro
  Q=172
  N.C.
 4/4
  Gtr I (El. Gtr. w/ light dist.)
  E    E Q  E    E Q    Q  Q  Q  Q    E    E Q  E    E Q    Q  Q  Q  Q
|---------------------|-------------|---------------------|-------------|
|---------------------|-------------|---------------------|-------------|
|-4pb5r4-2------------|-------------|-4pb5r4-2------------|-------------|
|-----------4pb5r4-2--|-------------|-----------4pb5r4-2--|-------------|
|---------------------|-------------|---------------------|-------------|
|---------------------|-0--3--5-----|---------------------|-0--3--5-----|


  E    E Q  E E Q    Q  Q  Q  Q    E    E Q  E E Q    Q  Q  Q  Q
|------------------|-------------|------------------|-------------||
|-7pb8r7-5--5-3----|-------------|-7pb8r7-5--5-3----|-------------||
|---------------5--|-7--5--6-----|---------------5--|-------------||
|------------------|-7--4--5-----|------------------|-------------||
|------------------|-------------|------------------|-------------||
|------------------|-------------|------------------|-0--3--5-----||


   1st - 3rd Verses
    $
    A5
    PM--------------------------------------|
    E E E  E  E E E  E    E  E  E E  E  E E  E
||----------------------|-----------------------|
||o---------------------|-----------------------|
||----------------------|-----------------------|
||--2-2-4-(2)-2-2-4-(2)-|-5-(2)-4-2-(2)-2-4-(2)-|
||o-0-0-0--0--0-0-0--0--|-0--0--0-0--0--0-0--0--|
||----------------------|-----------------------|


  N.C.
  Q  E E E E E E   +E  E E    E E E E E
|----------------|-----------------------|
|----------------|-----------------------|
|--------------2-|-(2)-2-----------------|
|--------2-4-----|-------4pb5r4-2-2-4-2--|
|-0--3-4---------|-----------------------|
|----------------|-----------------------|


  A5
  PM--------------------------------------|
  E E E  E  E E E  E    E  E  E E  E  E E  E
|---------------------|-----------------------|
|---------------------|-----------------------|
|---------------------|-----------------------|
|-2-2-4-(2)-2-2-4-(2)-|-5-(2)-4-2-(2)-2-4-(2)-|
|-0-0-0--0--0-0-0--0--|-0--0--0-0--0--0-0--0--|
|---------------------|-----------------------|


  N.C.
  Q  E E E E E E   +E  E E    E E E E E
|----------------|----------------------|
|----------------|----------------------|
|--------------2-|-(2)-2----------------|
|--------2-4-----|-------4pb5r4-2-2-4-2-|
|-0--3-4---------|----------------------|
|----------------|----------------------|


  D5
  PM--------------------------------------|
  E E E  E  E E E  E    E  E  E E  E  E E  E
|---------------------|-----------------------|
|---------------------|-----------------------|
|-2-2-4-(2)-2-2-4-(2)-|-5-(2)-4-2-(2)-2-4-(2)-|
|-0-0-0--0--0-0-0--0--|-0--0--0-0--0--0-0--0--|
|---------------------|-----------------------|
|---------------------|-----------------------|


  N.C.
  Q  E E E E E E   +E  E E    E E E E E
|----------------|----------------------|
|--------------3-|-(3)-3----------------|
|--------2-4-----|-------4pb5r4-2-----2-|
|-0--3-4---------|----------------3-4---|
|----------------|----------------------|
|----------------|----------------------|


  A5
  PM--------------------------------------|
  E E E  E  E E E  E    E  E  E E  E  E E  E
|---------------------|-----------------------|
|---------------------|-----------------------|
|---------------------|-----------------------|
|-2-2-4-(2)-2-2-4-(2)-|-5-(2)-4-2-(2)-2-4-(2)-|
|-0-0-0--0--0-0-0--0--|-0--0--0-0--0--0-0--0--|
|---------------------|-----------------------|


  N.C.
  Q  E E E E E E   +E  E E    E E E E E
|----------------|----------------------|
|----------------|----------------------|
|--------------2-|-(2)-2----------------|
|--------2-4-----|-------4pb5r4-2-----2-|
|-0--3-4---------|----------------3-4---|
|----------------|----------------------|


                                                          To Coda
    E7               D7               E7               D7
  E E E E +H       E E E E +H       E E E E +H       E E E E +H
|----------------|----------------|----------------|----------------||
|---5---5-(5)----|---3---3-(3)----|---5---5-(5)----|---3---3-(3)----||
|---7---7-(7)----|---5---5-(5)----|---7---7-(7)----|---5---5-(5)----||
|---6---6-(6)----|---4---4-(4)----|---6---6-(6)----|---4---4-(4)----||
|---7---7-(7)----|---5---5-(5)----|---7---7-(7)----|---5---5-(5)----||
|----------------|----------------|----------------|----------------||


  1.
  N.C.
           ~~~~~~~~~~~~~
  Q  S E. +Q   +Q     Q  E E E E E E   Q  E E E E E E   +E  E E    E E E E E
|-------------------|----------------|----------------|-----------------------||
|----7-7--(7)--(7)s=|=8--5-----------|----------------|----------------------o||
|----7-7--(7)--(7)s=|=9--5-7-5-------|--------------2-|-(2)-2-----------------||
|-------------------|----------7-5---|--------2-4-----|-------4pb5r4-2-2-4-2--||
|-------------------|--------------7-|-0--3-4---------|----------------------o||
|-------------------|----------------|----------------|-----------------------||


  2.
  N.C.
     ~~~~~~~~~~~~~~~~~
  Q  H.          +H      E    S S E E   Q  E E E E E E   +E  E E    E E E E E
|--------------|----------------------|----------------|----------------------||
|----8---------|-(8)------------------|----------------|----------------------||
|----7b9=======|=(7)r----7pb9r7p5-7-5-|--------------2-|-(2)-2----------------||
|--------------|----------------------|--------2-4-----|-------4pb5r4-2-----2-||
|--------------|----------------------|-0--3-4---------|----------------3-4---||
|--------------|----------------------|----------------|----------------------||


 Guitar Solo
  N.C.
  Q    E Q    E Q      E Q    E E   E E E
|------5------5------|-5------5-----------|
|-5------5------5----|---5------5---------|
|-7b9----7b9----7b9--|---7b9----7b9-7-5---|
|--------------------|------------------7-|
|--------------------|--------------------|
|--------------------|--------------------|


  E   E   E    E  E    E  E    E    E   E E E E E E E
|---------------------------------|-------------------|
|-----5---5----5--5----5--5----5--|-5---------7-5-----|
|-5b7-7b9-7b9==7r-7b9==7r-7b9==7r-|-7b9-7-5---7-5---5-|
|---------------------------------|---------7-----7---|
|---------------------------------|-------------------|
|---------------------------------|-------------------|


   E     S  S  E  E     S  S  S  S  E     E    E     E  S  S  S  S  S  S  S  S  S  S  E
|-------12-12-12-------12-12-12-12-12----12-|-12----12-15p12----15p12----15p12----12h15-|
|-13b14----------13b14-------------15b17----|-15b17----------15-------15-------15-------|
|-------------------------------------------|-------------------------------------------|
|-------------------------------------------|-------------------------------------------|
|-------------------------------------------|-------------------------------------------|
|-------------------------------------------|-------------------------------------------|


   E  S  S  S  S  S  S  S  S  S  S  S  S  S  S
|-12-15p12----15p12----15p12----15p12----15p12-|
|----------15-------15-------15-------15-------|
|----------------------------------------------|
|----------------------------------------------|
|----------------------------------------------|
|----------------------------------------------|


   Q      Q.      E  E E   Q    E  E  Q      E     E
|-15b17--15b17---15\-----|-----10----12b14--12b14r12-|
|----------------15\-----|--------12-----------------|
|----------------------0h|=2/------------------------|
|------------------------|---------------------------|
|------------------------|---------------------------|
|------------------------|---------------------------|


   E  E  E     S  S  E  E  E  E       S  E     S  E     S  S      +S    S  E     E E
|-10-12----------------------------|-------------------------------------------------|
|-------12b14-12-10-12----10-------|-10-------10-------10--------------10-------10---|
|----------------------11----12b14-|----12b14----12b14----12b14==(12)r----12b14----0-|
|----------------------------------|-------------------------------------------------|
|----------------------------------|-------------------------------------------------|
|----------------------------------|-------------------------------------------------|


   E     S  S  S  S  E     S  S  S  S  E     E
|-------12-12-12-12-------12-12-12-12----------|
|-12b14-------------12b14-------------12b14-12-|
|----------------------------------------------|
|----------------------------------------------|
|----------------------------------------------|
|----------------------------------------------|


                                                                     ~~~
   E     E  E     E  Q   E E   E   E E   E Q  E E     E  E  E  E  E  Q.
|-12b14r12-------------------|--------------------|--------12-------------|
|----------12b14r12-10--12---|-----5--------------|-----12----14-15-15----|
|--------------------------0-|-4b6---4b6-4-2----2-|-/12-------------------|
|----------------------------|----------------4---|-----------------------|
|----------------------------|--------------------|-----------------------|
|----------------------------|--------------------|-----------------------|


                                     ~~~~~
   E     E  E  Q   E  E  E    Q      H        E  E
|--------------------------|-15b17--15b17----12----|
|-15b17r15-13-----13-15-13-|--------------------15-|
|-------------14-----------|-----------------------|
|--------------------------|-----------------------|
|--------------------------|-----------------------|
|--------------------------|-----------------------|


                                                |-3-|
   E     S  S  E  E  Q   E E   E   S S S S E    E E E S    S S S
|----------------------------|-----5-5----------5----------------|
|-15b17r15p13-15----13--15p0-|-5-------8-5-8b10---8-5------------|
|----------------14----------|-7b9--------------------7pb9r7p5-0-|
|----------------------------|-----------------------------------|
|----------------------------|-----------------------------------|
|----------------------------|-----------------------------------|


                                                    D.S. al Coda
                     ~
  +S  S E E E E    E Q    Q  E E E E E E   +E  E E    E E E E E
|-----------------------|----------------|------------------------||
|-----------5-----------|----------------|------------------------||
|-(0)-2-4S6---4pb6r4-2--|--------------2-|-(2)-2------------------||
|-----------------------|--------2-4-----|-------4pb5r4-2-----2---||
|-----------------------|-0--3-4---------|----------------3-4-----||
|-----------------------|----------------|------------------------||


 Outro
  &
  N.C.
     ~~~~~~~~~~~~~~~~~
  Q  H.          +H      E E E E
|--------------|-----------------|
|----8---------|-(8)-------5-7-5-|
|----7b9=======|=(7)r------------|
|--------------|-----------------|
|--------------|-----------------|
|--------------|-----------------|


                              A7
  Q     Q  E E    E E   E E E E +H       +W
|-8b10--8--5----------|----------------|--------*|
|----------5----------|----------------|--------*|
|------------7pb9r7---|-5-----6-(6)----|-(6)----*|
|-------------------7-|---7-5-5-(5)----|-(5)----*|
|---------------------|-------7-(7)----|-(7)----*|
|---------------------|-------5-(5)----|-(5)----*|            
Submit corrections


        Boney Moronie  lessons Hard to play? Try these video lessons and learn fast Boney Moronie  lessons
        
↑ Back to top | Tablatures and chords for acoustic guitar and electric guitar, ukulele, drums are parodies/interpretations of the original songs. You may use it for private study, scholarship, research or language learning purposes only