» » »

Johnny Winter - Blinded By Love Tabs

Artists:  A B C D E F G H I J K L M N O P Q R S T U V W X Y Z # 

Blinded By Love Tabs

(ver. 1) Click to play this song!
Johnny Winter
 Rating:
4.3/5 (9 votes)

 Blinded By Love  lessons Tabs too difficult? Try these video lessons and learn fast
 
                

Riff# 1/ Chorus

"Blinded by love.."

e|---------------------------------------------------------------------------|
B|---------------------------------------------------------------------------|
G|---------------------------------------------------------------------------|
D|---------------4-----2-0-----2-----0--------0---------5--7-----------------|
A|--------------------------3----------3--0------3---7-----------------------|
E|----5-3-5-3-5--------------------------------------------------------------|


e|---------------------------------------------------------------------------|
B|---------------------------------------------------------------------------|
G|----------------------------------------------------------5----------------|
D|---------------4-----2-0-----2---0---------------------5-------------------|
A|--------------------------3----------3--0--------5-6-7---------------------|
E|----5-3-5-3-5--------------------------------------------------------------|



Verse
3x

"Look around the corner..."

||:   A7    D7    :||


"........wall staring at   me.."

        F     C             A            
e|---------------------------------------|
B|---------------------------------------|
G|---------------------------------------|
D|-------3----2--0-----------------------|
A|------------------3-------0------------|
E|---------------------------------------|



Riff#3

"Never meant to hurt..."

e|---------------------------------------------------------------------------|
B|---------------------------------------------------------------------------|
G|---------------------------------------------------------------------------|
D|----2-2-0-----2----2-2-0-------2--2-0-------0------------------------------|
A|-----------3-------------3-------------3-----------0------3----------------|
E|---------------------------------------------------------------------------|


                               "Time you gotta say.. good-"

e|--------------------------------------------------------|
B|--------------------------------------------------------|
G|--------------------------------------------------------|
D|----2-2-0-----2----2-2-0-------2--2-0-------0-----------|
A|-----------3-------------3-------------3-----------0----|
E|--------------------------------------------------------|


"...-bye.."

||  C    |   G    |   D   |   A   |   A   |   A   |    A   ||





            
Submit corrections


        Blinded By Love  lessons Hard to play? Try these video lessons and learn fast Blinded By Love  lessons
        
↑ Back to top | Tablatures and chords for acoustic guitar and electric guitar, ukulele, drums are parodies/interpretations of the original songs. You may use it for private study, scholarship, research or language learning purposes only