» » »

Johnny Winter - Be Careful With A Fool Tabs

Artists:  A B C D E F G H I J K L M N O P Q R S T U V W X Y Z # 

Be Careful With A Fool Tabs

(ver. 1) Click to play this song!
Johnny Winter
 Rating:
4.3/5 (24 votes)

 Be Careful With A Fool  lessons Tabs too difficult? Try these video lessons and learn fast
 
                [Intro]

e|-----8-11-11b-11-8----------8-------------------------------------|
B|8-11---------------11-8-11b---11-8--------------------------------|
G|-----------------------------------11>10-8----8-10-8~-------------|
D|-------------------------------------------10---------------------|
A|------------------------------------------------------------------|
E|------------------------------------------------------------------|

e|------------------------------------------------------------------|
B|11--11--11--------------------------------------------------------|
G|13b-13b-13b-12>10-8-----------------------------------------------|
D|------------------------------------------------------------------|
A|------------------------------------------------------------------|
E|------------------------------------------------------------------|
            
Submit corrections


        Be Careful With A Fool  lessons Hard to play? Try these video lessons and learn fast Be Careful With A Fool  lessons
        
↑ Back to top | Tablatures and chords for acoustic guitar and electric guitar, ukulele, drums are parodies/interpretations of the original songs. You may use it for private study, scholarship, research or language learning purposes only