Home » J » John Michael Montgomery »

John Michael Montgomery - Friends Tabs

Artists:  A B C D E F G H I J K L M N O P Q R S T U V W X Y Z # 

Friends Tabs

(ver. 1) Click to play this song!
John Michael Montgomery
Friends
John Micheal Montgomery  Key A

A                Bm7                                 A/3
-----------------------------------------------------12--
---14----12--14--14h15----14--12--------------------
------14-----------------------------------14-----------
----------------------------------------------------------
----------------------------------------------------------
----------------------------------------------------------
               D                     E
----5--4---------------------------------------------
--5------7-5--5h7p5-----------------------5-7-5--
-----------------------7---7-6-4---------4---------
-------------------------------------7-6------------
-----------------------------------------------------
-----------------------------------------------------
                                                    F#m                                                   
----------------------------------------------------------
----------6------------9-----------12--15--14p12------
-------7----------10----------13--------------------14--
--6-9--------12----------15-----------------------------
----------------------------------------------------------
----------------------------------------------------------
                      D       E           A
----------------------------------------------------------
--12--12h14-----------7-9-10--9--10--12--14---------
---------------11---6-7-9-11--9--11--13--14---------
----------------------------------------------------------
----------------------------------------------------------
----------------------------------------------------------
            
Submit corrections

↑ Back to top | Tablatures and chords for acoustic guitar and electric guitar, ukulele, drums are parodies/interpretations of the original songs. You may use it for private study, scholarship, research or language learning purposes only