Home » J » John Mayall And The Bluesbreakers »

John Mayall And The Bluesbreakers - Little Girl Tabs

Artists:  A B C D E F G H I J K L M N O P Q R S T U V W X Y Z # 

Little Girl Tabs

(ver. 1) Click to play this song!
John Mayall And The Bluesbreakers
 Rating:
2.9/5 (20 votes)
                Tuning: EADGBe

  D7                    C7                          G7
E|---------------------|---------------------------|---------------------------|--------|
B|---------------------|----3b----5h6-5h6----------|3-5-6p5-3~--3-5------------|3-5-----|
G|---------------------|----3b-5--5h6-5h6-5\3------|----------------3h4p3------|3-5-3tr4|
D|------------3---3b---|3/5-------------------5-3-5|----------------------5-3-5|--------|
A|3/5-5-5-5-5---5----5\|---------------------------|---------------------------|--------|
E|---------------------|---------------------------|---------------------------|--------|

G7
You're gonna be my little girl
You've been through 18 years of pain
C7
You're gonna be my little girl   
                                    G7
You've been through 18 years of pain
D7 
I'm gonna give you a love child
C7                       G7
You won't feel bad again

  G7
E|-------|--------------------------|---------------------|--------------------------|--------|
B|-------|--------------------------|---------------------|3-5-6p5-3~--3-5-----------|3-5-3---|
G|-------|------------------3b-3b---|----3-3b-3b----------|----------------3tr4------|3-5-3tr4|
D|----3-5|------------5-3-5-------5~|3h5----------5-3-5-5\|---------------------5-3-5|--------|
A|3h5----|3-3-3-3-3/5---------------|---------------------|--------------------------|--------|
E|-------|--------------------------|---------------------|--------------------------|--------|

  C7                                      G7
E|-------------------|-------------------|-------------------|-------------------------------------|
B|-------------------|-------------------|-------------------|3-5-6p5-3~--3-5----------------5-3---|
G|-------------------|-------------------|-------------------|----------------3tr4-----------5-3tr4|
D|3---3-5\-----------|----5---5b--8-5---5|-------------------|---------------------5-3-5-3/5-------|
A|--5------/3-3-3-3-3|5/7---7---------7--|1/3-3-2-3-2-3p2----|-------------------------------------|
E|-------------------|-------------------|----------------3-3|-------------------------------------|
  
  D7                             C7                          G7
E|------------------------------|---------------------------|---------------------------|--------|
B|------------------------------|----3b----5b6-5b6----------|3-5-6p5-3~--3-5------------|3/5-----|
G|------------------------------|----3b-5--5b6-5b6-5\3------|----------------3h4p3------|3/5-3tr4|
D|3---3-5\-------------3---3b---|3/5-------------------5-3-5|----------------------5-3-5|--------|
A|--5------3/5-5-5-5-5---5----5\|---------------------------|---------------------------|--------|
E|------------------------------|---------------------------|---------------------------|--------|

G7
You've been this pretty little girl
But I swear, I swear it'll be outgrown
C7
You've been this pretty little girl
                                      G7
But I swear, I swear it'll be outgrown
D7
I'm gonna give you a love child,
C7                      G7
Some day you never know

  G7
E|--------------------------------------|----------------------------|--------------------|----------------|
B|--------------------------------------|----------------------------|3-5-6p5-3~--3-5-----|----------5-3---|
G|------------------------------3b-3b---|----------------------------|----------------3tr4|----------5-3tr4|
D|3---3-5\----------------5-3-5-------5\|----3-5------3--------------|--------------------|5-3-5-3/5-------|
A|--5------/3-3-3-3-3-3/5---------------|3/5-----5--5---5-3---3------|--------------------|----------------|
E|--------------------------------------|-------------------6---6-3-3|--------------------|----------------|

  C7                                                                    G7
E|-----------------------------------------|---------------------------|--------------------|----------------|
B|-----------------------------------------|---------------------------|3-5-6p5-3~--3-5-----|----------5-3---|
G|-----------------------------------------|---------------------------|----------------3tr4|----------5-3tr4|
D|--3---3-5\----------------5---5b--8-5---5|---3-3-3--3-5-3------------|--------------------|5-3-5-3/5-------|
A|5---5------/3-3-3-3-3-5/7---7---------7--|/5-5-5-5--------5\3---3----|--------------------|----------------|
E|-----------------------------------------|--------------------6---6-3|--------------------|----------------|

  D7                             C7                          G7
E|------------------------------|---------------------------|---------------------------|--------|
B|------------------------------|----3b----5b6-5b6----------|3-5-6p5-3~--3-5------------|3-5-----|
G|------------------------------|----3b-5--5b6-5b6-5\3------|----------------3h4p3------|3-5-3tr4|
D|3---3-5\-------------3---3b---|3/5-------------------5-3-5|----------------------5-3-5|--------|
A|--5------3/5-5-5-5-5---5----5\|---------------------------|---------------------------|--------|
E|------------------------------|---------------------------|---------------------------|--------|

  Solo
  G7
E|--------------------------------------------------------------------------|
B|---8-11b13-11pb13-11pb13-11pb13-11pb13-11pb13-11pb13-11pb13-11pbr13-8---8~|
G|/9--------------------------------------------------------------------9---|
D|--------------------------------------------------------------------------|
A|--------------------------------------------------------------------------|
E|--------------------------------------------------------------------------|

E|----------------------------------------------------------------------------|
B|---8-11b13-11pb13-11pb13-11pb13-11pb13-11pb13-11pb13-11pb13-11pbr13-8---8-10|
G|/9--------------------------------------------------------------------9-----|
D|----------------------------------------------------------------------------|
A|----------------------------------------------------------------------------|
E|----------------------------------------------------------------------------|
   
E|--------------------------------------------------------------------------------|
B|10b12-10pb12-10pb12-10pb12-10pb12-11--12-11b13-11pb13-11pb13-11pb13-11pb13-12-13|
G|--------------------------------------------------------------------------------|
D|--------------------------------------------------------------------------------|
A|--------------------------------------------------------------------------------|
E|--------------------------------------------------------------------------------|

E|---------------------------------------------------------------------------------|
B|13b15-13pb15-13pb15-13pb15-13pb15-14-15--15b17-15pb17-15pb17-15pb17-15pb17-15pb17|
G|---------------------------------------------------------------------------------|
D|---------------------------------------------------------------------------------|
A|---------------------------------------------------------------------------------|
E|---------------------------------------------------------------------------------|

  C7 
E|--------------------------------------------------|------------------------------------------------|
B|--------------------------------------------------|------18-------18-------18----------------------|
G|15-17-15~------------15-17-17br19p15-17-15-----15b|17b19----17b19----17b19----17-15-17-15----------|
D|-----------17-15-17~-----------------------17~----|---------------------------------------17p15-17\|
A|--------------------------------------------------|------------------------------------------------|
E|--------------------------------------------------|------------------------------------------------|
 
  G7                                                              D7
E|-----------------------------|------3------6-8-6--6---6--------|----------------------------|
B|----6-6----------------------|----3---6/8~--------6h8-6h8-6----|---6---8br10-6-8p6---------3|
G|5/7-----7\5-3-5p3---5-3------|5b7---------------------------5-3|/7---7-------------7\5-3-5--|
D|------------------5-----5-3-5|---------------------------------|----------------------------|
A|-----------------------------|---------------------------------|----------------------------|
E|-----------------------------|---------------------------------|----------------------------|

  C7                           G7
E|----------------------------|-----------------------|------------------|
B|6b8-6-3---3-----------------|3/5-3~-----------------|3-----------------|
G|--------5----3h5-3-----3b---|-------3-5-3h5-3~------|3-----------------|
D|-------------------5-5----5~|------------------5p3-5|--3-3-----3h5-3---|
A|----------------------------|-----------------------|--5-5-5h8-------5\|
E|----------------------------|-----------------------|------------------|

G7
You're gonna be my little girl
Even if I can't have you by my side
C7
You're gonna be my little girl
                                G7
Even if I can't have you by my side
D7      
You're gonna remember the love child
C7
That leave you satisfied.

  G7
E|---------------------------------|----------------|---------------------|---------------|
B|---------------------------------|----------------|3-5-6p5-3~--3-5------|------/3-5-3---|
G|----------------3b------------2b3|------2br3p0----|----------------3h4p3|------/3-5-3tr4|
D|----------5-3-5----5-3-5--3-5----|5-3-5--------5-5|---------------------|5-3-5----------|
A|/3--3-3/5------------------------|----------------|---------------------|---------------|
E|---------------------------------|----------------|---------------------|---------------|

  C7                                                              G7
E|------------------------------------------|--------------------|---------------------|---------------|
B|------------------------------------------|--------------------|3-5-6p5-3~--3-5------|------/3-5-3---|
G|------------------------------------------|--3---3b----3-------|----------------3h4p3|------/3-5-3tr4|
D|3---3-5\-----------------5---5b--8b-5---5~|5---5----5----3-5-5~|---------------------|5-3-5----------|
A|--5-------/3-3-3-3-3-5/7---7---------7----|--------------------|---------------------|---------------|
E|------------------------------------------|--------------------|---------------------|---------------|

  D7                             C7                          G7
E|------------------------------|---------------------------|---------------------------|3-----6----|
B|------------------------------|----3b----5b6-5b6----------|3-5-6p5-3~--3-5------------|3--6--6h8~~|
G|------------------------------|----3b-5--5b6-5b6-5\3------|----------------3h4p3------|---7-------|
D|3---3-5\-------------3---3b---|3/5-------------------5-3-5|----------------------5-3-5|-----------|
A|--5------3/5-5-5-5-5---5----5\|---------------------------|---------------------------|-----------|
E|------------------------------|---------------------------|---------------------------|-----------|            
Submit corrections

↑ Back to top | Tablatures and chords for acoustic guitar and electric guitar, ukulele, drums are parodies/interpretations of the original songs. You may use it for private study, scholarship, research or language learning purposes only