Home » J » John Fogerty »

John Fogerty - Centerfield Tabs

Artists:  A B C D E F G H I J K L M N O P Q R S T U V W X Y Z # 

Centerfield Tabs

(ver. 3) Click to play this song!
John Fogerty
Tuning: Standard 


[Intro]

e|------------------------------------------------------------------|
B|------------------------0-3-----------------------------0---------|
G|--------------0-----2-0--------------------0-----2-0--2-----------|
D|------------2---0-4---------0------------2---0-4----------0-------|
A|-----0-2-3------------------------0-2-3---------------------------|
E|---3----------------------------3---------------------------------|

e|-----------------------------0-----------------------------------------------5-5-5------|
B|------------------------0-3--3-------1--------0--0-------------------------7-7-7-7------|
G|--------------0-----2-0------0-------0--------0--0-----------------------7-7-7-7-7------|
D|------------2---0-4----------0-----2--------0------------------------7-7-7-7-7-7-7------|
A|-----0-2-3-----------------------3------3-2----------------------5-5-5-5-5-5-5-5-5------|
E|---3-----------------------------------------------5-5-5-5-5-5-5-5-5-5-5-5-5-5-5-5------|            
Submit corrections

↑ Back to top | Tablatures and chords for acoustic guitar and electric guitar, ukulele, drums are parodies/interpretations of the original songs. You may use it for private study, scholarship, research or language learning purposes only