Home » J » John Cougar Mellencamp »

John Cougar Mellencamp - Rumbleseat Tabs

Artists:  A B C D E F G H I J K L M N O P Q R S T U V W X Y Z # 

Rumbleseat Tabs

(ver. 2) Click to play this song!
John Cougar Mellencamp
 Rating:
4/5 (4 votes)
                Rumbleseat by John Cougar Mellencamp

You should be able to piece together the entire song structure with these four building blocks.

Intro plus this is used for fills here and there
|-8-8-6-6-5-5-6-6-|-8-8-6-6-5-5-6-6-|-8-8-6-6-5-5-6-6-|-8-8-6-6-5-5-6-6-|
|-6-6-6-6-6-6-6-6-|-6-6-6-6-6-6-6-6-|-6-6-6-6-6-6-6-6-|-6-6-6-6-6-6-6-6-|
|-----------------|-----------------|-----------------|-----------------|
|-----------------|-----------------|-----------------|-----------------|
|-----------------|-----------------|-----------------|-----------------|
|-----------------|-----------------|-----------------|-----------------|


|-----------------|-----------------|-----------------|-----------------|
|-----------------|-----------------|-----------------|-----------------|
|-----------------|-----------------|-----------------|-----------------|
|-----------------|-----------------|-----------------|-----------------|
|---------------0-|-1-1---1-1-0-1-3-|-3-3---3-3-------|-3-3---3-3-------|
|-1-1---1-1-0-1---|-----------------|-----------5-3-5-|-----------5-3-5-|


|-----------------|-----------------|-----------------|-----------------|
|-----------------|-----------------|-----------------|-----------------|
|-----------------|-----------------|-----------------|-----------------|
|-----------------|-----------------|-----------------|-----------------|
|---------------0-|-1-1---1-1-0-1-3-|-3-3---3-3-------|-3-3---3-3-------|
|-1-1---1-1-0-1---|-----------------|-----------5-3-5-|-----------5-3-5-|


Verse (all palm muted)
|-----------------|-----------------|-----------------|-----------------|
|-----------------|-----------------|-----------------|-----------------|
|-----------------|-----------------|-----------------|-----------------|
|-----------------|-----------------|-----------------|-----------------|
|---------------0-|-1-1---1-1-0-1-3-|-3-3---3-3-------|-3-3---3-3-------|
|-1-1---1-1-0-1---|-----------------|-----------5-3-5-|-----------5-3-5-|


|-----------------|-----------------|-----------------|-----------------|
|-----------------|-----------------|-----------------|-----------------|
|-----------------|-----------------|-----------------|-----------------|
|-----------------|-----------------|-----------------|-----------------|
|---------------0-|-1-1---1-1-0-1-3-|-3-3---3-3-------|-3-3---3-3-------|
|-1-1---1-1-0-1---|-----------------|-----------5-3-5-|-----------5-3-5-|


Bridge
 Bb                C                 Bb                C
|-----------------|-----------------|-----------------|-----------------|
|-----------------|-----------------|-----------------|-----------------|
|-----------------|-----------------|-----------------|-----------------|
|-----------------|-----------------|-----------------|-----------------|
|-----------------|-----------------|-----------------|-----------------|
|-----------------|-----------------|-----------------|-----------------|


Chorus (one guitar plays single note runs and one strums chords)
 F                 Bb                C                 C
|-----------------|-----------------|-----------------|-----------------|
|-----------------|-----------------|-----------------|-----------------|
|-----------------|-----------------|-----------------|-----------------|
|-----------------|-----------------|-----------------|-----------------|
|---------------0-|-1-1---1-1-0-1-3-|-3-3---3-3-------|-3-3---3-3-------|
|-1-1---1-1-0-1---|-----------------|-----------5-3-5-|-----------5-3-5-|


 F                 Bb                C                 C
|-----------------|-----------------|-----------------|-----------------|
|-----------------|-----------------|-----------------|-----------------|
|-----------------|-----------------|-----------------|-----------------|
|-----------------|-----------------|-----------------|-----------------|
|---------------0-|-1-1---1-1-0-1-3-|-3-3---3-3-------|-3-3---3-3-------|
|-1-1---1-1-0-1---|-----------------|-----------5-3-5-|-----------5-3-5-|
            
Submit corrections

↑ Back to top | Tablatures and chords for acoustic guitar and electric guitar, ukulele, drums are parodies/interpretations of the original songs. You may use it for private study, scholarship, research or language learning purposes only