Home » J » John Coltrane »

John Coltrane - Like Sonny Tabs

Artists:  A B C D E F G H I J K L M N O P Q R S T U V W X Y Z # 

Like Sonny Tabs

(ver. 1) Click to play this song!
John Coltrane
 Dm7                                                               Fm7
e|--------------------------------|--------------------------------|--------------------------------|
B|--------------------------------|--------------------------------|--------------------------------|
G|--------------------------------|--------------------------------|--------------------------------|
D|--------------------------------|--------------------------------|1-3-1-0-1-----------0---1-3-1-0-|
A|3-5-3-2-3-----------2---3-5-3-2-|3-----------2---3-5-3-2-5-----3-|--------------------------------|
E|--------------------------------|--------------------------------|--------------------------------|
 |1 e + a 2 e + a 3 e + a 4 e + a |1 e + a 2 e + a 3 e + a 4 e + a |1 e + a 2 e + a 3 e + a 4 e + a |

                                   Abm7                             Bb7(b9)
e|--------------------------------|--------------------------------|--------------------------------|
B|--------------------------------|--------------------------------|--------------------------------|
G|--------------------------------|--------------------------------|--------------------------------|
D|1-----------0---1-3-1-0-1-----3-|4-6-4-3-4-----------3---4-6-4-3-|4-----------3---4-6-4-3-4-6-4-3-|
A|--------------------------------|--------------------------------|--------------------------------|
E|--------------------------------|--------------------------------|--------------------------------|
 |1 e + a 2 e + a 3 e + a 4 e + a |1 e + a 2 e + a 3 e + a 4 e + a |1 e + a 2 e + a 3 e + a 4 e + a |

  Ebmaj7
e|--------------------------------|--------------------------------|
B|--------------------------------|--------------------------------|
G|--------------------------------|--------------------------------|
D|--------------------------------|--------------------------------|
A|5-----------4---5-------4---5---|--------------------------------|
E|--------------------------------|--------------------------------|
 |1 e + a 2 e + a 3 e + a 4 e + a |1 e + a 2 e + a 3 e + a 4 e + a |


[Part B]

  Am7                                                               Fm7
e|--------------------------------|--------------------------------|--------------------------------|
B|--------------------------------|--------------------------------|--------------------------------|
G|5-7-5-4-5-----------4---5-7-5-4-|5-----------4---5-7-5-4-5-7-5-4-|--4-----------------------4-----|
D|--------------------------------|--------------------------------|6---6-5-6-----------5---6---6-5-|
A|--------------------------------|--------------------------------|--------------------------------|
E|--------------------------------|--------------------------------|--------------------------------|
 |1 e + a 2 e + a 3 e + a 4 e + a |1 e + a 2 e + a 3 e + a 4 e + a |1 e + a 2 e + a 3 e + a 4 e + a |

                                   C#m7                                             F#7 
e|--------------------------------|--------------------------------|--------------------------------|
B|--------------------------------|--------------------------------|--------------------------------|
G|------------------4-------4-----|--------------------------------|--------------------------------|
D|6-----------5---6---6-5-6---6-5-|--------------------------------|--------------------------------|
A|--------------------------------|7-9-7-6-7-----------6---7-9-7-6-|7-----------6---7-9-7-6-7-9-7---|
E|--------------------------------|--------------------------------|------------------------------9-|
 |1 e + a 2 e + a 3 e + a 4 e + a |1 e + a 2 e + a 3 e + a 4 e + a |1 e + a 2 e + a 3 e + a 4 e + a |

  Bmaj7                                            Ebm7    Ab7
e|--------------------------------|--------------------------------|
B|--------------------------------|--------------------------------|
G|--------------------------------|--------------------------------|
D|--------------------------------|--------------------------------|
A|6-------------------------------|--------------------------------|
E|--------------------------------|--------------------------------|
 |1 e + a 2 e + a 3 e + a 4 e + a |1 e + a 2 e + a 3 e + a 4 e + a |            
Submit corrections

↑ Back to top | Tablatures and chords for acoustic guitar and electric guitar, ukulele, drums are parodies/interpretations of the original songs. You may use it for private study, scholarship, research or language learning purposes only