» » »

John Carpenter - Lauries Theme Tabs

Artists:  A B C D E F G H I J K L M N O P Q R S T U V W X Y Z # 

Lauries Theme Tabs

(ver. 1) Click to play this song!
John Carpenter
 Rating:
4/5 (25 votes)

 Lauries Theme  lessons Tabs too difficult? Try these video lessons and learn fast
 
                Fig. 1

e|---3---------6---------7-------------------|
B|---------------------------------5---------|
G|-------------------------------------------|
D|---6p5--6p5--6p5--6p5--5p4--5p4--5p4--5p4--|  x2
A|-------------------------------------------|
E|-------------------------------------------|


Fig. 2

e|---1---------4---------5-------------------|
B|---------------------------------3---------|
G|-------------------------------------------|
D|---4p3--4p3--4p3--4p3--3p2--3p2--3p2--3p2--|  x2
A|-------------------------------------------|
E|-------------------------------------------|


Fig. 3

e|-----------------------|
B|-----------------------|
G|---0----0----0----0----|
D|---6p5--6p5--6p5--6p5--|  x2
A|-----------------------|
E|-----------------------|


Fig. 4*

e|---2-3-----------------2-3--------------|
B|----------------------------------------|
G|----------------------------------------|
D|-------5-------5-5---------5-------5-5--|
A|---------------5-5-----------------5-5--|  
E|------(3)------3-3--------(3)------3-3--|              
Submit corrections


        Lauries Theme  lessons Hard to play? Try these video lessons and learn fast Lauries Theme  lessons
        
↑ Back to top | Tablatures and chords for acoustic guitar and electric guitar, ukulele, drums are parodies/interpretations of the original songs. You may use it for private study, scholarship, research or language learning purposes only