Home » J » John Carpenter »

John Carpenter - Halloween Bass

Artists:  A B C D E F G H I J K L M N O P Q R S T U V W X Y Z # 

Halloween Bass

(ver. 1) Click to play this song!
John Carpenter
 Rating:
4.3/5 (21 vote)
                [Main synth]
G|-18-------18-------18----19----|-18-------18-------18----19----|
D|----16-16----16-16----16----16-|----16-16----16-16----16----16-|
A|-------------------------------|-------------------------------| (x4)
E|-------------------------------|-------------------------------|
   1  +  2  +  3  +  4  +  5  +    1  +  2  +  3  +  4  +  5  +   

G|-18-------18-------18----19----|-17-------17-------17----18----|
D|----16-16----16-16----16----16-|----15-15----15-15----15----15-|
A|-------------------------------|-------------------------------|
E|-------------------------------|-------------------------------|
   1  +  2  +  3  +  4  +  5  +    1  +  2  +  3  +  4  +  5  +  

G|-17-------17-------17----18----|
D|----15-15----15-15----15----15-|
A|-------------------------------|
E|-------------------------------|
   1  +  2  +  3  +  4  +  5  +  

G|-18-------18-------18----19----|-18-------18-------18----19----|
D|----16-16----16-16----16----16-|----16-16----16-16----16----16-|
A|-------------------------------|-------------------------------|
E|-------------------------------|-------------------------------|
   1  +  2  +  3  +  4  +  5  +    1  +  2  +  3  +  4  +  5  +   

G|-17-------17-------17----18----|-17-------17-------17----18----|
D|----15-15----15-15----15----15-|----15-15----15-15----15----15-|
A|-------------------------------|-------------------------------|
E|-------------------------------|-------------------------------|
   1  +  2  +  3  +  4  +  5  +    1  +  2  +  3  +  4  +  5  +  

G|-16-------16-------16----17----|-16-------16-------16----17----|
D|----14-14----14-14----14----14-|----14-14----14-14----14----14-|\
A|-------------------------------|-------------------------------| \
E|-------------------------------|-------------------------------|  \
   1  +  2  +  3  +  4  +  5  +    1  +  2  +  3  +  4  +  5  +      (x2)
                                                                    /
G|-15-------15-------15----16----|-15-------15-------15----16----| /
D|----13-13----13-13----13----13-|----13-13----13-13----13----13-|/
A|-------------------------------|-------------------------------|
E|-------------------------------|-------------------------------|
   1  +  2  +  3  +  4  +  5  +    1  +  2  +  3  +  4  +  5  +  

G|-------------------------------|-------------------------------|
D|-16-------16-------16----17----|-16-------16-------16----17----|
A|----14-14----14-14----14----14-|----14-14----14-14----14----14-| (x4)
E|-------------------------------|-------------------------------|  
   1  +  2  +  3  +  4  +  5  +    1  +  2  +  3  +  4  +  5  + 

G|-------------------------------|
D|-16-------16-------16----17----|
A|----14-14----14-14----14----14-|
E|-------------------------------|
   1  +  2  +  3  +  4  +  5  +  

G|-18-------18-------18----19----|-18-------18-------18----19----|
D|----16-16----16-16----16----16-|----16-16----16-16----16----16-|
A|-------------------------------|-------------------------------| (x3)
E|-------------------------------|-------------------------------|
   1  +  2  +  3  +  4  +  5  +    1  +  2  +  3  +  4  +  5  +   

G|-17-------17-------17----18----|-17-------17-------17----18----|
D|----15-15----15-15----15----15-|----15-15----15-15----15----15-|
A|-------------------------------|-------------------------------|
E|-------------------------------|-------------------------------|
   1  +  2  +  3  +  4  +  5  +    1  +  2  +  3  +  4  +  5  +  

G|-18-------18-------18----19----|-18-------18-------18----19----|
D|----16-16----16-16----16----16-|----16-16----16-16----16----16-|
A|-------------------------------|-------------------------------|
E|-------------------------------|-------------------------------|
   1  +  2  +  3  +  4  +  5  +    1  +  2  +  3  +  4  +  5  +   

G|-17-------17-------17----18----|-17-------17-------17----18----|
D|----15-15----15-15----15----15-|----15-15----15-15----15----15-|
A|-------------------------------|-------------------------------|
E|-------------------------------|-------------------------------|
   1  +  2  +  3  +  4  +  5  +    1  +  2  +  3  +  4  +  5  +  

G|-16-------16-------16----17----|-16-------16-------16----17----|
D|----14-14----14-14----14----14-|----14-14----14-14----14----14-|\
A|-------------------------------|-------------------------------| \
E|-------------------------------|-------------------------------|  \
   1  +  2  +  3  +  4  +  5  +    1  +  2  +  3  +  4  +  5  +      (x2)
                                                                    /
G|-15-------15-------15----16----|-15-------15-------15----16----| /
D|----13-13----13-13----13----13-|----13-13----13-13----13----13-|/
A|-------------------------------|-------------------------------|
E|-------------------------------|-------------------------------|
   1  +  2  +  3  +  4  +  5  +    1  +  2  +  3  +  4  +  5  +  

G|-------------------------------|-------------------------------|
D|-16-------16-------16----17----|-16-------16-------16----17----|
A|----14-14----14-14----14----14-|----14-14----14-14----14----14-| (x8)
E|-------------------------------|-------------------------------|  
   1  +  2  +  3  +  4  +  5  +    1  +  2  +  3  +  4  +  5  + 

G|-------------------------------|
D|-16-------16-------16----17----|
A|----14-14----14-14----14----14-|
E|-------------------------------|
   1  +  2  +  3  +  4  +  5  +  

G|-18-------18-------18----19----|-18-------18-------18----19----|
D|----16-16----16-16----16----16-|----16-16----16-16----16----16-|
A|-------------------------------|-------------------------------| (x4) and fade
E|-------------------------------|-------------------------------|
   1  +  2  +  3  +  4  +  5  +    1  +  2  +  3  +  4  +  5  +   

[Synth 2] Starts at 0:16
G|--------------------|---------------------|---------------------|---------------------|
D|--------------------|-7~------------------|-8~------------------|---------------------|
A|-9~-----------------|---------------------|---------------------|---------------------| (x2)
E|--------------------|---------------------|---------------------|---------------------|
   1 + 2 + 3 + 4 + 5 +  1 + 2 + 3 + 4 + 5 +   1 + 2 + 3 + 4 + 5 +   1 + 2 + 3 + 4 + 5 +

G|--------------------|---------------------|---------------------|---------------------|
D|--------------------|-5~------------------|-6~------------------|---------------------|
A|-7~-----------------|---------------------|---------------------|---------------------| (x2)
E|--------------------|---------------------|---------------------|---------------------|
   1 + 2 + 3 + 4 + 5 +  1 + 2 + 3 + 4 + 5 +   1 + 2 + 3 + 4 + 5 +   1 + 2 + 3 + 4 + 5 +

G|--------------------|---------------------|---------------------|---------------------|
D|--------------------|---------------------|---------------------|---------------------|
A|--------------------|-5~------------------|-7~------------------|-9~------------------| (x2)
E|-7~-----------------|---------------------|---------------------|---------------------|
   1 + 2 + 3 + 4 + 5 +  1 + 2 + 3 + 4 + 5 +   1 + 2 + 3 + 4 + 5 +   1 + 2 + 3 + 4 + 5 +

Rest until 1:20 and repeat.


            
Submit corrections

↑ Back to top | Tablatures and chords for acoustic guitar and electric guitar, ukulele, drums are parodies/interpretations of the original songs. You may use it for private study, scholarship, research or language learning purposes only