» » »

John 5 - Welcome To The Jungle Tabs

Artists:  A B C D E F G H I J K L M N O P Q R S T U V W X Y Z # 

Welcome To The Jungle Tabs

(ver. 2) Click to play this song!
John 5
 Rating:
4/5 (4 votes)

 Welcome To The Jungle lessons Tabs too difficult? Try these video lessons and learn fast
 
                
WELCOME TO THE JUNGLE
As recorded by John 5
(From the 2007 Album THE DEVIL KNOWS MY NAME)



 Words and Music by W. Axl Rose, Slash, Izzy Stradlin', Duff McKagan, and Steven Adler

 

D5
x 5 7 7 x x A5
5 7 7 x x x B5
7 9 x x x x D
x x 0 2 3 2 
G5
3 x 0 0 3 3 F#5
2 4 4 x x x F#5(type 2)
2 4 4 x x x G#5
4 6 6 x x x 
Bb5
x 1 3 3 x x E5
0 2 2 x x x B7+9/E
0 2 1 2 3 x F5
1 3 3 x x x 


Gtr I (Eb Ab Db Gb Bb Eb) - 'Distortion '
Gtr II (Eb Ab Db Gb Bb Eb) - 'Distortion 2'
Gtr III (Eb Ab Db Gb Bb Eb) - 'Distortion 3'
Gtr IV (Eb Ab Db Gb Bb Eb) - 'Distortion 4'
Gtr V (Eb Ab Db Gb Bb Eb) - 'Distortion w/Wah'
Gtr VI (Eb Ab Db Gb Bb Eb) - 'Clean 1'


 A
  Moderately Q=101
 4/4
  Gtr I
  PM--------------|             PM-----------------|
  S  S   S  S  S   S  E H       S  S  S   S  S  S   S  S H
|----------------------------|--------------------------------|
|-0---------0----------------|-----0---------0----------------|
|---(4)-(4)---(4)-(4)--------|-(4)---(4)-(4)---(4)-(4)--------|
|----------------------------|--------------------------------|
|----------------------------|--------------------------------|
|----------------------------|--------------------------------|


  PM----------------------------|
  S S S S S S S S S S S S S S S S
|----------------------------------|
|---0-----0-----0-----0-----0---0--|
|-4---4-2---2----------------------|
|-------------4---4-2---2-0--------|
|-----------------------------2----|
|----------------------------------|


  PM-----------------------------------------------------------------------------
  S S S S S S S S S S S S S S S S     S  S S S S S      S  S  S   S S S S S S S
|---------------------------------|---------------------------------------------|
|---0-----0-----0-----0-----0---0-|------0-----0-----------0--------0-----0---0-|
|-4---4-2---2---------------------|---4----4-2---2------------------------------|
|-------------4---4-2---2-0-------|---------------------4-----4---2---2-0-------|
|-----------------------------2---|-----------------------------------------2---|
|---------------------------------|---------------------------------------------|
|
| Gtr III
|                                                /3.5_________/5_________________
| W                                   Q        S S     +E    +H
|---------------------------------|---------------------------------------------|
|---------------------------------|--------------0-----(0)---(0)----------------|
|---------------------------------|---------------------------------------------|
|---------------------------------|---------------------------------------------|
|---------------------------------|---------------------------------------------|
|---------------------------------|---------------------------------------------|
|
| Gtr II
|                                     ~~
| W                                 a H.                                e   e
|---------------------------------|---------------------------------------------|
|---------------------------------|---------------------------------------------|
|---------------------------------|-------------------------------------7---9---|
|---------------------------------|-7h9-----------------------------------------|
|---------------------------------|---------------------------------------------|
|---------------------------------|---------------------------------------------|


 ----------------------------------------------|
   S      S  S S  S  S S S  S   S  S   S S S S S
|---------------------------------------------------|
|---------0-------0------0---------0-------0---0----|
|--4---------4-2-----2------------------------------|
|----------------------4----4---2------2-0----------|
|--------------------------------------------2------|
|---------------------------------------------------|
|
|  /6_______________________/7_______________________
| +H                       +H
|---------------------------------------------------|
|-(0)----------------------(0)----------------------|
|---------------------------------------------------|
|---------------------------------------------------|
|---------------------------------------------------|
|---------------------------------------------------|
|
|              ~~~~~~~~~~~~~~~~~
|  S     +E    S +Q        +E     +Q         E
|---------------------------------------------------|
|---------------------------------------------------|
|--9pb10r(9)---7-(7)-------(7)----(7)\--------------|
|---------------------------------------------------|
|---------------------------------------------------|
|---------------------------------------------------|


   PM----------------------------------------------------------------------------
   S  S  S S  S  S S S  S  S S S S S S S    S  S S S S S S S  S   S S S S S S S
|----------------------------------------|--------------------------------------|
|-----0-------0------0-------0-----0---0-|-----0-----0-----0--------0-----0---0-|
|--4-----4-2-----2-----------------------|--4----4-2---2------------------------|
|------------------4----4--2---2-0-------|---------------4----4---2---2-0-------|
|------------------------------------2---|----------------------------------2---|
|----------------------------------------|--------------------------------------|
|
|                                                             /6_________________
| +W                                       +H                +H
|----------------------------------------|--------------------------------------|
|-(0)------------------------------------|-(0)---------------(0)----------------|
|----------------------------------------|--------------------------------------|
|----------------------------------------|--------------------------------------|
|----------------------------------------|--------------------------------------|
|----------------------------------------|--------------------------------------|
|
|     ~~~~~~~~~~~~~~~~~~~~~
|  S  E.     +Q        +Q.           E      H                +Q.            E
|----------------------------------------|--------------------------------------|
|----------------------------------------|--------------------------------------|
|----------------------------------------|--------------------------------------|
|--7--9------(9)-------(9)-----------9s==|==2----------------(2)------------2S==|
|----------------------------------------|--------------------------------------|
|----------------------------------------|--------------------------------------|


 ---------------------------------------------------------------------------------|
   S   S S S S S S S   S  S S S S S  S S    S     S S S S S S S   S  S S S S S  S S
|----------------------------------------|---------------------------------------------|
|------0-----0-----0--------0-----0----0-|--------0-----0-----0--------0-----0----0----|
|--4-----4-2---2-------------------------|--4-------4-2---2----------------------------|
|----------------4-----4--2---2-0--------|------------------4-----4--2---2-0-----------|
|------------------------------------2---|--------------------------------------2------|
|----------------------------------------|---------------------------------------------|
|
|  /5_______________________________________/4.5________________________________________
| +W                                       +W
|----------------------------------------|---------------------------------------------|
|-(0)------------------------------------|-(0)-----------------------------------------|
|----------------------------------------|---------------------------------------------|
|----------------------------------------|---------------------------------------------|
|----------------------------------------|---------------------------------------------|
|----------------------------------------|---------------------------------------------|
|
|  H                  +Q.            E      H                    +Q.            E
|----------------------------------------|---------------------------------------------|
|-12-----------------(12)-----------12S==|=10-------------------(10)-----------10------|
|-11-----------------(11)-----------11S==|==9--------------------(9)------------9------|
|--9------------------(9)------------9S==|==7--------------------(7)------------7------|
|----------------------------------------|---------------------------------------------|
|----------------------------------------|---------------------------------------------|


                                         D5        A5
  Gtr IV
   W                                      H        H
                                          |        |
                                          /        /

   PM--------------------------------|
   S     S S S S S S S S S S S S S S S    W
|--------------------------------------|----------------|
|--------0-----0-----0-----0-----0---0-|----------------|
|--4-------4-2---2---------------------|----------------|
|------------------4---4-2---2-0-------|----------------|
|----------------------------------2---|----------------|
|--------------------------------------|----------------|
|
|  /3.5___________________________________/2.5___________
| +W                                     +W
|--------------------------------------|----------------|
|-(0)----------------------------------|-(0)------------|
|--------------------------------------|----------------|
|--------------------------------------|----------------|
|--------------------------------------|----------------|
|--------------------------------------|----------------|
|
|  W                                      H        H
|--------------------------------------|----------------|
|--------------------------------------|----------------|
|--9-----------------------------------|--7-------------|
|--9-----------------------------------|--7--------7----|
|--7-----------------------------------|--5--------7----|
|--------------------------------------|-----------5----|


  B5
   E     E E E E E E E          E   E         E   E  E E  Q
   |     | | | | | | |          |   |         |   |  | |  |
   x     x x x x x x x          x   /         /   /  / /  /

   W                            W
|----------------------|---------------------------------------|
|----------------------|---------------------------------------|
|----------------------|---------------------------------------|
|----------------------|---------------------------------------|
|----------------------|---------------------------------------|
|----------------------|---------------------------------------|
|
|  /1.5_________________________/1________________________|
| +W                           +H.                       +Q
|----------------------|---------------------------------------|
|-(0)------------------|-------(0)-----------------------(0)---|
|----------------------|---------------------------------------|
|----------------------|---------------------------------------|
|----------------------|---------------------------------------|
|----------------------|---------------------------------------|
|
|  E     E E E E E E E   a      E  +E  a      E  +E  Q    Q
|----------------------|---------------------------------------|
|----------------------|-------10------------10------7---------|
|------------------7-9-|-9b11==(9)r(9)-9b11==(9)r(9)-7---------|
|--------------7-9-----|----------------------------------9\---|
|--------5-7s9---------|---------------------------------------|
|--7-------------------|---------------------------------------|


  Faster Q=123
  Gtrs II, IV
                              PM--|                     PM--|
  E E E S S +S  S E E E   E E S S S S +S  S E E E   E E S S S S +S  S E E E
|-----------------------|-------------------------|--------------------------|
|-----------------------|-------------------------|--------------------------|
|-2-2-----2-(2)-x-------|-2-2-------2-(2)-x-------|-2-2-------2-(2)-x--------|
|-2-2-----2-(2)-x-------|-2-2-------2-(2)-x-------|-2-2-------2-(2)-x--------|
|-0-0-5-x-0-(0)-x-5-4---|-0-0-------0-(0)-x-5-4---|-0-0-------0-(0)-x-5-4----|
|-----3-x---------3-2-0-|-----3-3-3---------3-2-0-|-----3-3-3---------3-2-0--|


                                                B
  Gtr V
                                                     ~~~                            ~~
        W                                         S  E.      E      S  S     +E     E  +E   E
|---------------------------------------------||----------------------------------------------|
|---------------------------------------------||----------------------13b14-(13)--------------|
|---------------------------------------------||-12-14------14-----12--------------14-(14)\---|
|---------------------------------------------||----------------------------------------------|
|---------------------------------------------||----------------------------------------------|
|---------------------------------------------||----------------------------------------------|
|
| Gtr II
|                                                 PM|
|       E   E    E   S S +Q        +Q             S  S  E    E      S  S     +S  S  E   E   E
|----------------------5-(5)-------(5)\-------||----------------------------------------------|
|---------------------------------------------||----------------------------------------------|
|-------2---2--------2------------------------||--------2-------------------------------------|
|-------2---2---------------------------------||--------2-------------------------------------|
|-------0---0---------------------------------||--0--0--0--------------0-----(0)-x----------2-|
|----------------3----------------------------||-------------3b3.5--x---------------3---2---0-|
|
| Gtr IV
|                                                 PM-------------------------------------------
| a    +E  +S  S S S S S  S  S S S  S   S S S     E     S S  E      S  S     +S  S  E   E   E
|---------------------------------------------||----------------------------------------------|
|---------------------------------------------||----------------------------------------------|
|-7b9==(7)r(7)-5-7-5--------------------------||----------------------------------------------|
|--------------------7-5----------------------||----------------------------------------------|
|-------------------------7--6-5s3--5---3-----||--7----------5------x--7-----(7)-x--5---4-----|
|-----------------------------------------5-3-||--5-----5-5--3------x--5-----(5)-x--3---2---0-|


      ~~~                            ~~
   S  E.      E      S  S     +E     E  +E   E
|------------------------------------------------|
|----------------------13b14-(13)----------------|
|-12-14------14-----12--------------14-(14)\-----|
|------------------------------------------------|
|------------------------------------------------|
|------------------------------------------------|
|
|  PM|
|  S  S  E    E      S  S     +S  S  E   E   E
|------------------------------------------------|
|------------------------------------------------|
|--------2---------------------------------------|
|--------2---------------------------------------|
|--0--0--0--------------0-----(0)-x----------2---|
|-------------3b3.5--x---------------3---2---0---|
|
|--------------------------------------------|
|  E     S S  E      S  S     +S  S  E   E   E
|------------------------------------------------|
|------------------------------------------------|
|------------------------------------------------|
|------------------------------------------------|
|--7----------5------x--7-----(7)-x--5---4-------|
|--5-----5-5--3------x--5-----(5)-x--3---2---0---|


   S  E.      E      S  S     +E     S  S   E      +E
|------------------------------------------------------|
|----------------------13b14-(13)------13-(13)b14-(13)-|
|-12-14------14-----12--------------14-----------------|
|------------------------------------------------------|
|------------------------------------------------------|
|------------------------------------------------------|
|
|  PM|
|  S  S  E    E      S  S     +S  S  E      E       E
|------------------------------------------------------|
|------------------------------------------------------|
|--------2---------------------------------------------|
|--------2---------------------------------------------|
|--0--0--0--------------0-----(0)-x-----------------2--|
|-------------3b3.5--x---------------3------2-------0--|
|
|  PM---------------------------------------------------
|  E     S S  E      S  S     +S  S  E      E       E
|------------------------------------------------------|
|------------------------------------------------------|
|------------------------------------------------------|
|------------------------------------------------------|
|--7----------5------x--7-----(7)-x--5------4----------|
|--5-----5-5--3------x--5-----(5)-x--3------2-------0--|


                        ~~~~~~~         ~~                  ~~~~~~~
   S  S  E    E      S  S  +E     E  E  E    S  E.    E  S  S  +E     +E   E   E
|-----------------------------------------|---------------------------------------|
|-----------------------------------------|---------------------------------------|
|-12-14-14---14-----12-14-(14)---14-14-12-|---------------------------------------|
|-----------------------------------------|-12-14----14-12-14-(14)---(14)\--------|
|-----------------------------------------|----------------------------------/14--|
|-----------------------------------------|---------------------------------------|
|
|  PM|
|  S  S  E    E      S  S  +S  S  E  E  E    E     E  E  S  S  +S  S   E   E   E
|-----------------------------------------|---------------------------------------|
|-----------------------------------------|---------------------------------------|
|--------2--------------------------------|---------------------------------------|
|--------2--------------------------------|--9-----9--7--x--9--(9)-x---7---6---4--|
|--0--0--0--------------0--(0)-x--------2-|--7-----7--5--x--7--(7)-x---5---4---2--|
|-------------3b3.5--x------------3--2--0-|---------------------------------------|
|
|--------------------------------------|                               PM----|
|  E     S S  E      S  S  +S  S  E  E  E    E     E  E  S  S  +S  S   E   E   E
|-----------------------------------------|---------------------------------------|
|-----------------------------------------|---------------------------------------|
|-----------------------------------------|---------------------------------------|
|-----------------------------------------|--9-----9--7--x--9--(9)-x---7---6---4--|
|--7----------5------x--7--(7)-x--5--4----|--7-----7--5--x--7--(7)-x---5---4---2--|
|--5-----5-5--3------x--5--(5)-x--3--2--0-|---------------------------------------|


                                                                              ~~
   E       Q   S S  a     +E     E  S  S  E       +E   E  E  E    E     E  E  E
|----------------------------------------------|--------------------------------|
|-------------------------------12-------------|--------------------------------|
|-12b12.5----------14b16-(14)------14p12-14b16-|-(14)-14-14-12---14----12-14-12-|
|---------14---x-x-----------------------------|--------------------------------|
|----------------------------------------------|--------------------------------|
|----------------------------------------------|--------------------------------|
|
|  E       E E S S        +S  S  E  E     E        E   E  E  S S +S  S  E  E  E
|----------------------------------------------|--------------------------------|
|----------------------------------------------|--------------------------------|
|----------------------------------------------|--------------------------------|
|--9-------9-7-x-9--------(9)-x--7--6-----4----|---9---9--7--x-9-(9)-x--7--6--4-|
|--7-------7-5-x-7--------(7)-x--5--4-----2----|---7---7--5--x-7-(7)-x--5--4--2-|
|----------------------------------------------|--------------------------------|
|
|                                PM------|                              PM---|
|  Q         E S S        +S  S  E  E     E        Q      E  S S +S  S  E  E  E
|----------------------------------------------|--------------------------------|
|----------------------------------------------|--------------------------------|
|----------------------------------------------|--------------------------------|
|--9---------7-x-9--------(9)-x--7--6-----4----|---9------7--x-9-(9)-x--7--6--4-|
|--7---------5-x-7--------(7)-x--5--4-----2----|---7------5--x-7-(7)-x--5--4--2-|
|----------------------------------------------|--------------------------------|


           PM---------------------------------|
   +E   E  S  S  S  S  S   S  S  S  S   S  S   S
|-------------------------------------------------|
|-------------------------------------------------|
|-(12)\---14-14-14-14-14--14-14-14-14--14-14--14--|
|-------------------------------------------------|
|-------------------------------------------------|
|-------------------------------------------------|
|
|   E   E  E     S  S +S   S  E     E      E
|-------------------------------------------------|
|-------------------------------------------------|
|-------------------------------------------------|
|---9---9--7-----x--9-(9)--x--7-----6------4------|
|---7---7--5-----x--7-(7)--x--5-----4------2------|
|-------------------------------------------------|
|
|   E   E  E     S  S +S   S  E     E      E
|-------------------------------------------------|
|-------------------------------------------------|
|-------------------------------------------------|
|---9---9--7-----x--9-(9)--x----------------------|
|---7---7--5-----x--7-(7)--x--5----[4]----[2]-----|
|-------------------------------------------------|


   E     +E  E  E    +Q          +E  E    E  Q        +E     E   E Q
|--------------------------------------|-------------------------------|
|--------------------------------------|-------------------------------|
|-14b19-(14)---14---(14)b19-----(14)---|----12pb16r==(12)-------12-----|
|--------------------------------------|-------------------------------|
|--------------------------------------|-------------------------------|
|--------------------------------------|-------------------------------|
|
| Gtrs II, IV
|  E      E  E  S S  +S     S E   E  E    E  E     E   S  S +E   E E E
|--------------------------------------|-------------------------------|
|--------------------------------------|-------------------------------|
|--------------------------------------|-------------------------------|
|--------------------------------------|-------------------------------|
|--7------7--5--x----------------------|-/7--7-----5---x---------------|
|-----------------6--(6)----6-5---3--0-|------------------6-(6)--5-3-0-|


   S   a      +S   +S   S  E.      S   E    Q.
|--------------------------------------------------||
|------------------------------------------13\-----||
|-----14b15==(14)r(14)p12-14------12---------------||
|--------------------------------------------------||
|--------------------------------------------------||
|--------------------------------------------------||
|
|                       ~~~~~~~~~~~~~~~~~~~
|  E.                   S +E   E      +E    E  E E
|--------------------------------------------------||
|--------------------------------------------------||
|--------------------------------------------------||
|--------------------------------------------------||
|-/7--------------------5-(5)----------------------||
|-----------------------------[6]----([6])--5--3-4-||


 C
      ~~~                                                        ~~~~
   S  E.    E  S  S     +E     E  E  E     S  E    S  +E   E     Q          +E      E
|---------------------------------------|-----------------------------------------------|
|----------------13b15-(13)-------------|-----------------------------------------------|
|-12-13----14-12--------------14-14\----|-12-14---14-(14)-12---[12]-------([12])\-------|
|------------------------------------9/-|-----------------------------------------------|
|---------------------------------------|-----------------------------------------------|
|---------------------------------------|-----------------------------------------------|
|
| Gtr II
|  PM----|                     PM---------------|                     PM-----------------
|  E     E  E  S  S     +E     E  E  E     E    E      E   S S  +E    E      E      E
|---------------------------------------|-----------------------------------------------|
|---------------------------------------|-----------------------------------------------|
|---------------------------------------|-----------------------------------------------|
|---------------------------------------|-----------------------------------------------|
|--7-----7--5--x--7-----(7)----5--4-----|--7----7------5---x-7--(7)---5------4----------|
|--5-----5--3--x--5-----(5)----3--2--0--|--5----5------3---x-5--(5)---3------2------0---|
|
| Gtr IV
|  ~~          PM--------------------|                           PM----------------------
|  Q        E  S  S     +S  S  E  E  E     E    E      E   S S   S  S S S    S    S S S
|---------------------------------------|-----------------------------------------------|
|---------------------------------------|-----------------------------------------------|
|---------------------------------------|--------------------0---2--0-------------------|
|---------------------------------------|-----------------------------2-0----2----0-----|
|---------------------------------------|-------------------------------------------2-0-|
|--5--------3--3--5-----(5)-5--3--2--0--|--5----5------3---x----------------------------|


                                           ~~
   E    E  E  E    a     +E     S  S  +E   E
|--------------------------------------------|
|-----------------13b15-(13)------13-(13)-13-|
|-12---14-14-12----------------14------------|
|--------------------------------------------|
|--------------------------------------------|
|--------------------------------------------|
|
|------|                        PM--------|
|  E    E  E  S S        +E     E      E   E
|--------------------------------------------|
|--------------------------------------------|
|--------------------------------------------|
|--------------------------------------------|
|--7----7--5--x-7--------(7)----5------4-----|
|--5----5--3--x-5--------(5)----3------2---0-|
|
|------------------------------|
|  S S  E  E  S S        +S  S  E      E   E
|--------------------------------------------|
|--------------------------------------------|
|--------------------------------------------|
|--------------------------------------------|
|--------------------------------------------|
|--5-5--5--3--0-5--------(5)-5--3------2---0-|


                 ~~~~~~~
   E    E  E  S  S  +E     E    E    E
|---------------------------------------------|
|---------------------------------------------|
|-12---14-14-12-14-(14)---14---14---12b12.5---|
|---------------------------------------------|
|---------------------------------------------|
|---------------------------------------------|
|
|  PM--|                   PM-------|
|  E    E  E  S  S  +E     E    E    E
|---------------------------------------------|
|---------------------------------------------|
|---------------------------------------------|
|---------------------------------------------|
|--7----7--5--x--7--(7)----5----4-------------|
|--5----5--3--x--5--(5)----3----2----0--------|
|
|  PM--|      PM
|  S S  E  E  S  S  +S  S  S S  S S  S      S
|---------------------------------------------|
|---------------------------------------------|
|---------------------------------------------|
|----------------0--(0)-0--2-0--5-0--5s=====7-|
|----------3--0-------------------------------|
|--5-5--5-------------------------------------|


                                                             ~~~~
   E  E  E  S  S  +Q     E  a  E    S  E    S     +E   E     Q      +E     E
|--------------------------------|---------------------------------------------|
|--------------------------------|---------------------------------------------|
|--------------------------------|---------12b14-(12)--------------------------|
|-12-14-14-12-14-(14)\-----------|-12-14--------------12---[14]---([14])\------|
|------------------------x-------|---------------------------------------------|
|--------------------------12s14-|----------------------------------------14---|
|
|  E  E  E  S  S  +E   E E     E    E    E         E   S S  +E  E    E     E
|--------------------------------|---------------------------------------------|
|--------------------------------|---------------------------------------------|
|--------------------------------|---------------------------------------------|
|--9--9--7--x--9--(9)--7-6-----4-|--9----9---------7---x-9--(9)-7----6-----4---|
|--7--7--5--x--7--(7)--5-4-----2-|--7----7---------5---x-7--(7)-5----4-----2---|
|--------------------------------|---------------------------------------------|
|
|        PM            PM-----|          PM|                    PM--------|
|  E  E  E  S  S  +E   E E     E    E    S  S      E   S S  +E  E    E     E
|--------------------------------|---------------------------------------------|
|--------------------------------|---------------------------------------------|
|--------------------------------|---------------------------------------------|
|--9--9--7--x--9--(9)--7-6-----4-|--9--------------7---x-9--(9)-7----6-----4---|
|--7--7--5--x--7--(7)--5-4-----2-|--7----7--7------5---x-7--(7)-5----4-----2---|
|--------------------------------|---------------------------------------------|


                                                         ~~~
   E  E  E  S  S     +E   E  E   a  E    E  E    E  E    Q     E E
|-------------------------------------|-----------------------------|
|-------------------------------------|-----------------------------|
|-------------12b13-(12)--------------|-----------------------------|
|-12-14-14-12------------14-14\-------|-12-14---14-12---12----12S9/-|
|-------------------------------12s14-|-----------------------------|
|-------------------------------------|-----------------------------|
|
|  E  E  E  S  S     +E   E  E      E    E  E    E  S S +E  E  E E
|-------------------------------------|-----------------------------|
|-------------------------------------|-----------------------------|
|-------------------------------------|-----------------------------|
|--9--9--7--x--9-----(9)--7--6------4-|--9--9----7--x-9-(9)-7--6-4--|
|--7--7--5--x--7-----(7)--5--4------2-|--7--7----5--x-7-(7)-5--4-2--|
|-------------------------------------|-----------------------------|
|
|        PM               PM-------|        PM|             PM---|
|  E  E  E  S  S     +E   E  E      E    E  S S  E  S S +E  E  E E
|-------------------------------------|-----------------------------|
|-------------------------------------|-----------------------------|
|-------------------------------------|-----------------------------|
|--9--9--7--x--9-----(9)--7--6------4-|--9-------7--x-9-(9)-7--6-4--|
|--7--7--5--x--7-----(7)--5--4------2-|--7--7-7--5--x-7-(7)-5--4-2--|
|-------------------------------------|-----------------------------|


   E  E E E  a     +E   E    S  S  S   S
|----------------------------------------------|
|----------------------12----------------------|
|-12--------14b16-(14)------14p12-----14pb16===|
|----14-x--------------------------------------|
|-------x--------------------------------------|
|----------------------------------------------|
|
|  Q    Q           Q        E    +E
|----------------------------------------------|
|----------------------------------------------|
|----------------------------------------------|
|-10----9-----------7--------5----(5)S=========|
|----------------------------------------------|
|--8----7-----------5--------3----(3)S=========|
|
|  H               +E   S S  E     S   S
|----------------------------------------------|
|----------------------------------------------|
|--5---------------(5)--x-x--------------------|
|--5---------------(5)--x-x--5-----x---x-------|
|--3---------------(3)--x-x--5-----x---x-------|
|----------------------------3-----x---x-------|


                           ~~~~~~~~
   +E   +E   E.    S  +E.  S  +E   E
|------------------------------------|
|------------------------------------|
|-(14)r(14)-------14-(14)-12-(12)----|
|------------------------------------|
|------------------------------------|
|------------------------------------|
|
|   Q        Q         Q       Q
|------------------------------------|
|------------------------------------|
|------------------------------------|
|--12-------11---------9-------7-----|
|------------------------------------|
|--10--------9---------7-------5-----|
|
|   Q        E  S  S   Q      +Q
|------------------------------------|
|----------------------8------(8)\---|
|---7-----------x--x---7------(7)\---|
|---7-----------x--x---7------(7)\---|
|---5-----------x--x-----------------|
|------------------------------------|


   Q    e Q        e Q      E  E  E  E    E   E  +E      +E
|------------------------|-----------------------------------|
|------------------------|-----------------------------------|
|------14---------14-----|----14-14-12-------14-(14)b17-(14)-|
|------------------------|-----------------------------------|
|------------------------|-----------------------------------|
|------------------------|-----------------------------------|
|
|  E E  E S S +E   E E E    E  E  E  S S +E   E   E       E
|------------------------|-----------------------------------|
|------------------------|-----------------------------------|
|------------------------|-----------------------------------|
|------------------------|-----------------------------------|
|-/7-7--5-x--------------|-/7--7--5--x-----------------------|
|-----------6-(6)--5-3-0-|-------------6-(6)--5---3-------0--|
|
|  E E  E S S +E   E E E    E  E  E  S S +E   E   E       E
|------------------------|-----------------------------------|
|------------------------|-----------------------------------|
|------------------------|-----------------------------------|
|------------------------|-----------------------------------|
|--7-7--5-x--------------|-/7--7--5--x-----------------------|
|-----------6-(6)--5-3-0-|-------------6-(6)--5---3-------0--|


   Q    E.       +S   Q     e E   S   S      +S   S  E   E  E   Q     E
|-------------------------------|---------------------------------------||
|-------------------------------|------------------------------15\------||
|------12pb17r==(12)-------14---|----14pb16r(14)-12-14--12--------------||
|-------------------------------|---------------------------------------||
|-------------------------------|---------------------------------------||
|-------------------------------|---------------------------------------||
|
|  E E  E     S   S  +E  E  E E   E.              S +E   E +E   E  Q
|-------------------------------|---------------------------------------||
|-------------------------------|---------------------------------------||
|-------------------------------|---------------------------------------||
|-------------------------------|-4---------------4-(4)--4-(4)--4--4\---||
|-/7-7--5-----x-----------------|-2---------------2-(2)--2-(2)--2--2\---||
|-----------------6--(6)-5--3-0-|---------------------------------------||
|
|  E E  E     S   S  +E  E  E E   E.              S +E   E +E   E  Q
|-------------------------------|---------------------------------------||
|-------------------------------|---------------------------------------||
|-------------------------------|---------------------------------------||
|-------------------------------|-4---------------4-(4)--4-(4)--4--4\---||
|-/7-7--5-----x-----------------|-2---------------2-(2)--2-(2)--2--2\---||
|-----------------6--(6)-5--3-0-|---------------------------------------||


 D
  Gtr IV
  PM                ~~~~~~~~~          PM|    ~~~        PM
  E  E  E E E  E E  E    +E     E    E S S E  Q.         E  E  E Q    E E  E
|---------------------|--------------------------------|---------------------|
|---------------------|--------12------------12--------|-------------15---15-|
|---12S13---x-13-x-13-|-(13)---12---13-----x-12--------|---12S13-----16---16-|
|---11S12---x-12-x-12-|-(12)--------12-----x-----------|---11S12-----18---18-|
|---13S14---x-14-x-14-|-(14)--------14-----x-----------|---13S14-----17---17-|
|-0-------------------|----------------0-0-------------|-0-------------------|
|
|         PM|    PM       PM               PM                    PM|    PM
| Q     E E E  E E  E     E  a  E a  E E   E  S  S Q     Q     E E E  E E  E
|---------------------|--------------------------------|---------------------|
|---------------------|--------------------------------|---------------------|
|---------------------|--------------------------------|---------------------|
|-------9------9----9-|--------------------------------|-------9------9----9-|
|-------7------7----7-|-----------5s=7-5------5----7\--|-------7------7----7-|
|-0-------0-0----0----|---0--5s=7----------0-----7-----|-0-------0-0----0----|


                  ~~
   +E   E  E Q    Q       +E       E  E  E     +E   +Q      e  e
|------------------------------|--------19b22-(19)-(19)----19-18-|
|-(15)-14S15-----20------(20)\-|-----17--------------------------|
|-(16)-15S16-----18------(18)\-|-/16-----------------------------|
|-(18)-17S18-------------------|---------------------------------|
|-(17)-16S17-------------------|---------------------------------|
|------------------------------|---------------------------------|
|
|   PM                                          PM-|        PM
|   E   E  E E E  S S Q            Q     E      E    E   E  E  E
|------------------------------|---------------------------------|
|------------------------------|---------------------------------|
|------------------------------|---------------------------------|
|----------9-------------------|--------14--------------14----14-|
|-------7---------5---7\-------|--------14--------------14----14-|
|---0--------7S0----7----------|---0------------0----0------0----|


                                  ~~
   a      +Q      +S   +S   S  S  Q     +E    a  E
|-17b19==(17)----(17)r(17)-15h17-------------------|
|--------------------------------15----(15)S=12s17-|
|--------------------------------------------------|
|--------------------------------------------------|
|--------------------------------------------------|
|--------------------------------------------------|
|
|                           PM---|
|         +E   E   E        E     E  E  +Q
|--------------------------------------------------|
|--------------------------------------------------|
|-----------------------------------12-(12)\-------|
|--------(14)-12--14----------------12-(12)\-------|
|--------(14)-12--14-------------------------------|
|---------------------------0-----0----------------|


                    |--3--|  |---3---|  |---3---|
   +E   S  S  S  S  S  S  S  E  E    E  E  E    E
|-------------------------------------------------|
|-(17)-15-12-15-14p13h14p13s12h13p==12------------|
|--------------------------------------14-13---12-|
|-------------------------------------------------|
|-------------------------------------------------|
|-------------------------------------------------|
|
|   E   E     E     E        E    E     E    E
|-------------------------------------------------|
|-------------------------------------------------|
|---7---8-----9-----7--------8----9-----7----8----|
|---7---8-----9-----7--------8----9-----7----8----|
|-------------------------------------------------|
|-------------------------------------------------|


                   ~~~
   |---3---|
   E  E    E  E E  Q.       +E
|---------------------------------||
|---------------------------------||
|-------------9-8-[7]------([7])\-||
|---------------------------------||
|-14-13---12\---------------------||
|---------------------------------||
|
|  E    E     E E +Q    Q
|---------------------------------||
|---------------------------------||
|--9----7-----8-9-(9)-------------||
|--9----7-----8-9-(9)-------------||
|----------------------10\--------||
|---------------------------------||


 E
  Gtr V
  E  E  E S  S     +E     E  E   a  E
|---------------------------------------|
|-8-10-10-8S13b15-(13)------------------|
|------------------------14-14\---------|
|-------------------------------12s14---|
|---------------------------------------|
|---------------------------------------|
|
| PM-------------------------------------
| E  E  E S  S     +S  S  E  E      E
|---------------------------------------|
|---------------------------------------|
|---------------------------------------|
|---------------------------------------|
|-7--7--5-x--7-----(7)-x--5--4----------|
|-5--5--3-x--5-----(5)-x--3--2------0---|
|
| Gtr IV
|            PM-------------|
| E  E  E S  S     +S  S  E  E      S S
|---------------------------------------|
|---------------------------------------|
|-------------------------------------0-|
|-----------------------------------2---|
|---------------------------------------|
|-5--5--3-x--5-----(5)-x--3--2----------|


                        ~~~
   E    E    E    S  S  Q       Q
|---------------------------------------|
|---------------------------------------|
|-12---14---14---12-14p12---------------|
|---------------------------------------|
|---------------------------------------|
|---------------------------------------|
|
|-----------------------------------|
|  E    E    E    S  S +S S E   E   E
|---------------------------------------|
|---------------------------------------|
|---------------------------------------|
|---------------------------------------|
|--7----7----5----x--7-(7)x-5---4-------|
|--5----5----3----x--5-(5)x-3---2---0---|
|
|    PM-------------|       PM----|
|  S S  S S  S S  S  S  S S S S S S S S
|---------------------------------------|
|---------------------------------------|
|--2-0----------------------------------|
|-------2-0--2-0--------2p0-------------|
|-----------------2--0------2-0-4-0-3h4-|
|---------------------------------------|


  E  E  E E    S     +S   S  S  +E      +E
|---------------------------------------------|
|-8-10-10-8S==13b14-(13)----13-(13)b15-(13)---|
|------------------------14-------------------|
|---------------------------------------------|
|---------------------------------------------|
|---------------------------------------------|
|
| PM-------------------------------------------
| E  E  E S S +S      S   E      E       E
|---------------------------------------------|
|---------------------------------------------|
|---------------------------------------------|
|---------------------------------------------|
|-7--7--5-x-7-(7)-----x---5------4------------|
|-5--5--3-x-5-(5)-----x---3------2-------0----|
|
|           PM-------------------------|
| E  E  E S S +S      S   E      E       S  S
|---------------------------------------------|
|---------------------------------------------|
|-------------------------------------------0-|
|---------------------------------------------|
|---------------------------------------------|
|-5--5--3-x-5-(5)-----x---3------2-------0----|


   E    E    E    S  S  +E       E  E   E           E  E  E  S  S  +Q       E   S  S
|------------------------------------------------|-----------------------------------|
|------------------------------------------------|-----------------------------------|
|-12---14---14---12-14-(14)-----14-14--12b12.5---|-----------------------------------|
|------------------------------------------------|-12-14-14-12-14-(14)\--------------|
|------------------------------------------------|--------------------------------14-|
|------------------------------------------------|----------------------------/14----|
|
|-------------------------------------|                                     PM----|
|  E    E    E    S  S  +S    S  E  E   E           E  E  E  S  S  +S   S E E   S  S
|------------------------------------------------|-----------------------------------|
|------------------------------------------------|-----------------------------------|
|------------------------------------------------|-----------------------------------|
|------------------------------------------------|--9--9--7--x--9--(9)--x-7-6---x--x-|
|--7----7----5----x--7--(7)---x--5--4------------|--7--7--5--x--7--(7)--x-5-4---x--x-|
|--5----5----3----x--5--(5)---x--3--2---0--------|-----------------------------------|
|
|    PM----------|
|  S S  S S  S S  S  S   Q.            +S      S    E  E  E  S  S  +S   S E E   S  S
|------------------------------------------------|-----------------------------------|
|------------------------------------------------|-----------------------------------|
|--2-0-------------------------------------------|-----------------------------------|
|-------2-0--2-0---------------------------------|--9--9--7--x--9--(9)--x-7-6---x--x-|
|-----------------0--2s=17b19---------(17)-------|--7--7--5--x--7--(7)--x-5-4---x--x-|
|------------------------------------------------|-----------------------------------|


                        ~~~~            PM---------|            PM
   S  E    S  E  S  S  +Q      Q        E  E  E  S S  E         S  S  +E   S  S
|------------------------------------|------------------------------------------|
|------------------------------------|------------------------------------------|
|------------12----------------------|---------------12b12.5------12-(12)-12-14-|
|-12-14---12----14-12-(12)-----------|-12-14-14-12-x-----------14---------------|
|------------------------------------|------------------------------------------|
|------------------------------------|------------------------------------------|
|
|                              PM--|                                   PM----|
|  Q          E  S  S  +S  S E E S S    E  E  E  S S +S      S  E      E   S  S
|------------------------------------|------------------------------------------|
|------------------------------------|------------------------------------------|
|------------------------------------|------------------------------------------|
|--9----------7--x--9--(9)-x-7-6-x-x-|--9--9--7--x-9-(9)-----x--7------6---x--x-|
|--7----------5--x--7--(7)-x-5-4-x-x-|--7--7--5--x-7-(7)-----x--5------4---x--x-|
|------------------------------------|------------------------------------------|
|
|                              PM|                                     PM-|
|  E    E     E  S  S  +S  S E E E      E  E  E  S S +S      S  E      E   E
|------------------------------------|------------------------------------------|
|------------------------------------|------------------------------------------|
|------------------------------------|------------------------------------------|
|--9----9-----7--x--9--(9)-x-7-6-4---|--9--9--7--x-9-(9)-----x--7------6---4----|
|--7----7-----5--x--7--(7)-x-5-4-2---|--7--7--5--x-7-(7)-----x--5------4---2----|
|------------------------------------|------------------------------------------|


   PM------------|   ~~~~~~~      PM
   S  S  E  S  S  S  S  +E     E  E E
|-----------------------------------------|
|-----------------------------------------|
|-----------------------------------------|
|-12-14-14-14-14-12-14-(14)---12\---4/----|
|---------------------------------7-------|
|-----------------------------------------|
|
|                                 PM---|
|  Q        E     S  S  +S  S  E  E S  S
|-----------------------------------------|
|-----------------------------------------|
|-----------------------------------------|
|--9--------7-----x--9--(9)-x--7--6-x--x--|
|--7--------5-----x--7--(7)-x--5--4-x--x--|
|-----------------------------------------|
|
|                                 PM|
|  E     E  E     S  S  +S  S  E  E E
|-----------------------------------------|
|-----------------------------------------|
|-----------------------------------------|
|--9-----9--7-----x--9--(9)-x--7--6-4-----|
|--7-----7--5-----x--7--(7)-x--5--4-2-----|
|-----------------------------------------|


      ~~
   E  Q   S S  a     +E   E    S  S  S   S
|-----------------------------------------------|
|------------------------12---------------------|
|-12----------14b16-(14)------14p12-----14pb16==|
|----14---x-x-----------------------------------|
|-----------------------------------------------|
|-----------------------------------------------|
|
|  Q    Q             Q        E    +E
|-----------------------------------------------|
|-----------------------------------------------|
|-----------------------------------------------|
|-10----9-------------7--------5----(5)S========|
|-----------------------------------------------|
|--8----7-------------5--------3----(3)S========|
|
|  H                  E   S S  E     E
|-----------------------------------------------|
|-----------------------------------------------|
|--5----------------------x-x-------------------|
|--5----------------------x-x--5----------------|
|--3----------------------x-x--5----------------|
|------------------------------3----------------|


                                       ~~~~~~~~~~~   PM-------------------------------|
   +E   +E   E  E    E  E       E      E      +E  E  S  S  S  S  S   S  S  S  S  S  S  S
|------------------------------------------|----------------------------------------------|
|------------------------------------------|----------------------------------------------|
|-(14)r(14)-14-12---14-12b12.5-14-----12---|-(12)---14-14-14-14-14--14-14-14-14-14-14-14--|
|------------------------------------------|----------------------------------------------|
|------------------------------------------|----------------------------------------------|
|------------------------------------------|----------------------------------------------|
|
|   Q        Q       Q          S   S  S S     e  E  E     S  S +E      E     E     E
|------------------------------------------|----------------------------------------------|
|------------------------------------------|----------------------------------------------|
|------------------------------------------|----------------------------------------------|
|--12-------11-------9---------------------|----------------------------------------------|
|------------------------------------------|---7--7--5-----x------------------------------|
|--10--------9-------7----------5p==3--5p3-|------------------6-(6)-----5-----3-----0-----|
|
|   Q        E  S S  Q         +Q              E  E  E     S  S +E      E     E     E
|------------------------------------------|----------------------------------------------|
|--------------------8---------(8)\--------|----------------------------------------------|
|---7--------x--x-x--7---------(7)\--------|----------------------------------------------|
|---7--------x--x-x--7---------(7)\--------|----------------------------------------------|
|---5--------x--x-x------------------------|---7--7--5-----x------------------------------|
|------------------------------------------|------------------6-(6)-----5-----3-----0-----|


   E     +E  E.    S  +E      +E  Q      E  Q.        H
|-------------------------------------|------------------------|
|-------------------------------------|----13\-----------------|
|-14b19-(14)------14-(14)b19-(14)-----|------------------------|
|-------------------------------------|------------------------|
|-------------------------------------|------------------------|
|-------------------------------------|------------------------|
|
| Gtrs II, IV
|  E      E  E  S  S  +E       E  E E    E  E  E S S +E  E E E
|-------------------------------------|------------------------|
|-------------------------------------|------------------------|
|-------------------------------------|------------------------|
|-------------------------------------|------------------------|
|-/7------7--5--x---------------------|-/7--7--5-x-------------|
|------------------6--(6)------5--3-0-|------------6-(6)-5-3-0-|


   S      +S   S  S  S   E.    S   E.  E  E
|--------------------------------------------||
|---------------------------------13s==8\----||
|-14pb16r(14)p12-14-----12-------------------||
|--------------------------------------------||
|--------------------------------------------||
|--------------------------------------------||
|
|                           ~~~~~~
|  E.             S +E      E +E     E E  E
|--------------------------------------------||
|--------------------------------------------||
|--------------------------------------------||
|--------------------------------------------||
|--7--------------5-(5)----------------------||
|---------------------------6-(6)----5-3--0--||


 F
  D             G5
  Gtrs II, IV
  W             W             W                W
  |             |
  /             /

  Gtr VI
  H.      E E   H.      E E   Q.   E E E E E   Q.   E E E E E
|-------------|-------------|-2----3p2-------|-0----8p7-----3p=|
|-3-----------|-------------|-3--------3-----|-3--------8------|
|-2-------5---|-0-------5---|-2----------2---|-0----------7----|
|-0-----------|-0-----------|----------------|-0---------------|
|-------------|-------------|----------------|-----------------|
|-------------|-3-----------|----------------|-3---------------|


  Gtr V
  Q   E a E E    +E  E a     +E
|--------------------------------|
|-----------8b10-(8)-------------|
|-------5s7------------9b11==(9)-|
|--------------------------------|
|--------------------------------|
|--------------------------------|
|
| Gtr VI
| E E H              E        E
|-2------------------------------|
|---3----------------------------|
|-----2--------------5--------0--|
|--------------------------------|
|--------------------------------|
|--------------------------------|
|
| Gtrs II, IV
| W
|--------------------------------|
|--------------------------------|
|--------------------------------|
|--------------------------------|
|--------------------------------|
|--------------------------------|


                    ~~
  +E  +E  E a E +E  Q.       Q  E     +E      +E  +E  Q
|--------------------------|-----------------------------|
|--------------------------|-----------------------------|
|-(9)r(9)-7-7s9-(9)-7------|----9pb11r(9)b11==(9)r(9)-7--|
|--------------------------|-----------------------------|
|--------------------------|-----------------------------|
|--------------------------|-----------------------------|
|
|  Q.         E  E  E  Q     W
|-------------8p=7---------|-2---------------------------|
|--3----------------8------|-3---------------------------|
|--0-------------------7\--|-2---------------------------|
|--0-----------------------|-0---------------------------|
|--------------------------|-----------------------------|
|--3-----------------------|-----------------------------|
|
|                                              <
|  W                         H                 H
|--------------------------|-----------------------------|
|--------------------------|-------------------7---------|
|--------------------------|-------------------7---------|
|--------------------------|-------------------7---------|
|--------------------------|-------------------5---------|
|--------------------------|-----------------------------|


   E  E  H          E E    E  E  H            E E    Q.        +E   Q    E E
|-----------------------|-------------------------|--------------------------|
|-----------------------|-------------------------|--------------------------|
|--7S=5-------------4---|--5p=4---------------4---|--5b7-------(5)-------4---|
|-----------------------|-------------------------|--------------------------|
|-----------------------|-------------------------|--------------------------|
|-----------------------|-------------------------|--------------------------|
|
| Gtr IV
|  E  E  E  E  E E  E E    E  E  E  E    E E  E E    E    E  E  E   E E  E E
|-----------------------|-------------------------|--------------------------|
|-12-12-12-12-12---10---|-12-12-12-12---12---10---|-12---12-12-12--12---10---|
|-12-12-12-12-12---10---|-12-12-12-12---12---10---|-12---12-12-12--12---10---|
|-12-12-12-12-12---10---|-12-12-12-12---12---10---|-12---12-12-12--12---10---|
|-10-10-10-10-10----8---|-10-10-10-10---10----8---|-10---10-10-10--10----8---|
|-----------------------|-------------------------|--------------------------|
|
|  PM---------|            PM--------------------------------------|
|  E  E  E  E  E E  Q      E  E  E  S S  E E  E E    E    E  E  E   E E  Q
|-----------------------|-------------------------|--------------------------|
|-----------------------|-------------------------|--------------------------|
|-----------------------|-------------------------|--------------------------|
|-----------------------|------------------3------|--------------------------|
|--5--5--5--5--5----3---|--5--5--5-------5-1--3---|--5----5--5--5---5----3---|
|--3--3--3--3--3----1---|--3--3--3--3-3--3----1-0-|--3----3--3--3---3----1---|


                           G
   H.              +Q        a      Q     a      Q     +E   a      Q     a      E
|------------------------||--------12-----------12----(12)--------12-----------12--|
|------------------------||-15b17-(15)---15b17-(15)---(15)-15b17-(15)---15b17-(15)-|
|-14b19-----------(14)---||--------------------------------------------------------|
|------------------------||--------------------------------------------------------|
|------------------------||--------------------------------------------------------|
|------------------------||--------------------------------------------------------|
|
|  PM-----------------------------|
|  E    E E E E E   E  E            E  E         E  E   E          E  E         E
|------------------------||--------------------------------------------------------|
|------------------------||------------8S========9------x----------9--x---------9--|
|------------------------||------------6S========7------x----------9--x---------9--|
|------------------------||-----------------------------x----------9--x---------9--|
|--7----7-7-7-7-7---7--7-||--------------------------------------------------------|
|--5----5-5-5-5-5---5--5-||---------0----------------------------------------------|
|
|  PM-------|                                       PM|               PM
|  E    E E E E E   E  E            Q            E  E   E          E  E         E
|------------------------||--------------------------------------------------------|
|------------------------||--------------------------------------------------------|
|------------------------||--------------------------------------------------------|
|------------------------||----------------------9-----------------9------------9--|
|--7----7-7-7-7-7---7--7-||----------------------7-----------------7------------7--|
|--5----5-5-5-5-5---5--5-||---------0---------------0---0-------------0------------|


   a      Q.        a      E   +E   E     E  E
|--------12---------------12--(12)--------------|
|-15b17-(15)-------15b17-(15)-(15)-15----12-15--|
|-----------------------------------------------|
|-----------------------------------------------|
|-----------------------------------------------|
|-----------------------------------------------|
|
|                          PM-|     ~~~
|         E  E   E         E    E   Q.
|-----------------------------------------------|
|---------x--8S==9-----------------12-----------|
|---------x--6S==7-----------------12-----------|
|---------x-------------------------------------|
|-----------------------------------------------|
|--------------------------0----0---------------|
|
|         PM               PM-|              ~~
|         E  S S E         E    E   S  S  E  E
|-----------------------------------------------|
|-----------------------------------------------|
|-----------------------------------------------|
|-----------------------------------------------|
|------------5---7------------------5-----7--7--|
|---------0----7-----------0----0------7--------|


   E     +E  E  a     +E   E  E      +E   E
|-----------12------------------------------|
|-------------------------15----------------|
|-14b16-(14)---14b16-(14)----14pb15r(14)-12-|
|-------------------------------------------|
|-------------------------------------------|
|-------------------------------------------|
|
|                      PM-|           PM
|  E      E  E         E   E  E       E   E
|-------------------------------------------|
|--x------8S=9----------------8-----------8-|
|--x------6S=7----------------7-----------7-|
|-----------------------------6-----------6-|
|-----------------------------7-----------7-|
|----------------------0---0----------0-----|
|
|                      PM-|           PM
|  E      E  E         E   E  E       E   E
|-------------------------------------------|
|-------------------------------------------|
|-------------------------------------------|
|------------9----------------9-----------9-|
|------------7----------------7-----------7-|
|--0------0------------0---0----------0-----|


                       ~~~~~~~~          ~                   ~~~
   E     +Q            E   +Q     Q      H    E E a     +E  +E
|-------------------------------------||------------------------|
|-15b17-(15)----------15--(15)--------||------------------------|
|-------------------------------------||------------------------|
|-------------------------------------||------------------------|
|-------------------------------------||------7---9b11==(9)r(9)-|
|--------------------------------15\--||-9------9---------------|
|
|  PM                       ~~~~                PM
|  E      E  E  a     +E    Q     Q      H    E E        E   E
|-------------------------------------||------------------------|
|---------8--x-10b12-(10)---8---------||------------------------|
|---------7--x------------------------||-6----x-6------------4--|
|---------6--x------------------------||-6----x-6--------6---4--|
|---------7--x------------------------||-4----x-4--------4---2--|
|--0----------------------------/15\--||------------------------|
|
|  PM        PM        ~~~~~~~~                 PM
|  E      E  E         E   +Q     Q      H    E E        E   E
|-------------------------------------||------------------------|
|-------------------------------------||------------------------|
|----------------------9---(9)--------||-6----x-6------------4--|
|----------------------9---(9)--------||-6----x-6--------6---4--|
|----------------------7---(7)---10\--||-4----x-4--------4---2--|
|--0------0--0------------------------||------------------------|


   ~~~              ~~~~~~~~~
  +H      a  E E E  E    +H     E  E  a      +E   +E
|---------------------|-------------------------------|
|---------------------|-------------------------------|
|---------------------|---------9----11b13==(11)r(11)-|
|--------------9-9s11-|-(11)------11------------------|
|-(9)-----9h11--------|-------------------------------|
|---------------------|-------------------------------|
|
| Gtrs II, IV
|       PM     PM
| +Q.   E    E E E  E     H     E  E          E    E
|---------------------|-------------------------------|
|---------------------|-------------------------------|
|-(4)--------4---4--0-|---6-----x--6----------x----4--|
|-(4)---4----4-4-4--0-|---6-----x--6----------x----4--|
|-(2)---0----2-0-2--0-|---4-----x--4----------x----2--|
|---------------------|-------------------------------|


                                                                      ~
   +H       a       S   +S  Q    E       +H      a       E   +S  S  E E
|-------------------------------------|----------------------------------|
|------------------12-----------12----|-----------------12---------------|
|-(11)-----11b12==(11)r(11)-9---11b13-|-(11)----11b13==(11)r(11)p9-------|
|-------------------------------------|----------------------------11-9--|
|-------------------------------------|----------------------------------|
|-------------------------------------|----------------------------------|
|
|  +Q.   E          E       E E  E        H              E    E     E E
|-------------------------------------|----------------------------------|
|-------------------------------------|----------------------------------|
|--(4)--------------4---------4--5----|---6--------------x----6-----x-4--|
|--(4)---4----------4-------4-4--5----|---6--------------x----6-----x-4--|
|--(2)---0----------2-------0-2--3----|---4--------------x----4-----x-2--|
|-------------------------------------|---------------------------------
            
Submit corrections


        Welcome To The Jungle lessons Hard to play? Try these video lessons and learn fast Welcome To The Jungle lessons
        
↑ Back to top | Tablatures and chords for acoustic guitar and electric guitar, ukulele, drums are parodies/interpretations of the original songs. You may use it for private study, scholarship, research or language learning purposes only