» » »

John 5 - July 31st The Last Stand Tabs

Artists:  A B C D E F G H I J K L M N O P Q R S T U V W X Y Z # 

July 31st The Last Stand Tabs

(ver. 3) Click to play this song!
John 5
 Rating:
4/5 (4 votes)

 July 31st The Last Stand lessons Tabs too difficult? Try these video lessons and learn fast
 
                -------------------------------------------------------------------------------
                             "July 31st (The Last Stand)" - John 5
-------------------------------------------------------------------------------




Tuning: [E A D G B E]



*For this song, you want to use heavy chorus, and a tremelo effect.


Legend:

h = hammer on
p = pull off
/ = slide up
\ = slide down
h/ = pick once
p\ = pick once
b = bend
1 = whole step
.5 = half step
__ = hold bend
() = bring bent note back to normal





Guitar 1:
e|------------------------------------------------------------------------------|
B|-19~~~~~~~~~~---------19~~~~~~~~---------17~~~~~~~---------17~~~~~~~~---------|
G|-------------20~~~~~~~----------20~~~~~~~---------18~~~~~~~----------18~~~~~~~|
D|------------------------------------------------------------------------------|
A|------------------------------------------------------------------------------|
E|------------------------------------------------------------------------------|

Guitar 2:
e|-11----11----11----11-----9-----9-----9-----9--|
B|-11----11----11----11-----9-----9-----9-----9--|
G|-14----14----14----14----12----12----12----12--|
D|-13----13----13----13----11----11----11----11--|
A|-----------------------------------------------|
E|-----------------------------------------------|

====================================
Guitar 1:
e|------------------------------------------------------------------------------|
B|-19~~~~~~~~~~---------19~~~~~~~~---------17~~~~~~~---------17~~~~~~~~---------|
G|-------------20~~~~~~~----------20~~~~~~~---------18~~~~~~~----------18~~~~~~~|
D|------------------------------------------------------------------------------| x2
A|------------------------------------------------------------------------------|
E|------------------------------------------------------------------------------|

Guitar 2:
e|-11----11----11----11-----9-----9-----9-----9--|
B|-11----11----11----11-----9-----9-----9-----9--|
G|-14----14----14----14----12----12----12----12--|
D|-13----13----13----13----11----11----11----11--| x2
A|-----------------------------------------------|
E|-----------------------------------------------|

Guitar 3: Play the first section twice, then the second section twice,
          then repeat that process again.
             (x2)                        (x2)
e|----------------------------|----------------------------|
B|-11-----11-----11-----11----|-9------9------9------9-----|
G|-14-----14-----14-----14----|-12-----12-----12-----12----|
D|----13-----13-----13-----13-|----11-----11-----11-----11-| x2
A|----------------------------|----------------------------|
E|----------------------------|----------------------------|

===================================
Guitar 1:
e|------------------------------------------------------------------------------|
B|-19~~~~~~~~~~---------19~~~~~~~~---------17~~~~~~~---------17~~~~~~~~---------|
G|-------------20~~~~~~~----------20~~~~~~~---------18~~~~~~~----------18~~~~~~~|
D|------------------------------------------------------------------------------| x2
A|------------------------------------------------------------------------------|
E|------------------------------------------------------------------------------|

Guitar 2:
e|-11----11----11----11-----9-----9-----9-----9--|
B|-11----11----11----11-----9-----9-----9-----9--|
G|-14----14----14----14----12----12----12----12--|
D|-13----13----13----13----11----11----11----11--| x2
A|-----------------------------------------------|
E|-----------------------------------------------|

Guitar 3: Play the first section twice, then the second section twice,
          then repeat that process again.
             (x2)                        (x2)
e|----------------------------|----------------------------|
B|-11-----11-----11-----11----|-9------9------9------9-----|
G|-14-----14-----14-----14----|-12-----12-----12-----12----|
D|----13-----13-----13-----13-|----11-----11-----11-----11-| x2
A|----------------------------|----------------------------|
E|----------------------------|----------------------------|


Guitar 4:
e|----------------------------------------------------------|
B|-11~-----11------11~-----11-------9-------9----9-------9--|
G|-14~--14---------14~--14----------12--12-------12--12-----|
D|-13~--------13---13~--------13----11-----------11---------| x2
A|----------------------------------------------------------|
E|----------------------------------------------------------|

====================================
Guitar 1:
e|-----------------------|
B|-19~~~~~-------19~~~~~~|
G|--------20~~~~~--------|
D|-----------------------|
A|-----------------------|
E|-----------------------|


Guitar 2:
e|-11----11----11----11--|
B|-11----11----11----11--|
G|-14----14----14----14--|
D|-13----13----13----13--|
A|-----------------------|
E|-----------------------|

====================================
Guitar 5:
                                                                           1____
e|----------------------------------------------------------------------------------|
B|----------------------------------------------------------------------------------|
G|--------------17----18~~~~~-------17----18~~~~---------17----18-20-17--17b---(17)-|
D|-----20-20-20----20--------20--20----20-------20-20-20----20----------------------|
A|----------------------------------------------------------------------------------|
E|----------------------------------------------------------------------------------|

Guitar 2: Listen for timing.
e|------------------------------------------|
B|------------------------------------------|
G|-------------11~~---10~-------------------|
D|-8~~---11~---11~~---10~---8~--11~~---10~--|
A|-8~~---11~---9~~~---8~~---8~--11~~---10~--|
E|-6~~~---9~~---------------6~~--9~~---8~~--|

=====================================
Guitar 5:
e|---------------------------------------------------------------------------|
B|---------------------------------------------------------------------------|
G|----------17----18~~~~---------17----18~~~~~---------17----18-20-17~~~~~~~~|
D|-20-20-20----20-------20-20-20----20--------20-20-20----20-----------------|
A|---------------------------------------------------------------------------|
E|---------------------------------------------------------------------------|

Guitar 2:
e|-------------------------------|
B|-------------------------------|
G|------------11~---10~------11~-|
D|-8~---11~---11~---10~--8~--11~-|
A|-8~---11~---9~~---8~~--8~--9~~-|
E|-6~---9~~--------------6~------|

=====================================
Guitar 2:
e|-11----11----11----11-----9-----9-----9-----9--|
B|-11----11----11----11-----9-----9-----9-----9--|
G|-14----14----14----14----12----12----12----12--|
D|-13----13----13----13----11----11----11----11--| x3
A|-----------------------------------------------|
E|-----------------------------------------------|


Guitar 3: Play the first section twice, then the second section twice,
          then repeat that process two more times..
             (x2)                        (x2)
e|----------------------------|----------------------------|
B|-11-----11-----11-----11----|-9------9------9------9-----|
G|-14-----14-----14-----14----|-12-----12-----12-----12----|
D|----13-----13-----13-----13-|----11-----11-----11-----11-| x3
A|----------------------------|----------------------------|
E|----------------------------|----------------------------|

Guitar 5:
e|----------------------------|
B|----------------------------|
G|-17~~~~~~(17)h/20~~~~~~~~~~~|
D|----------------------------|
A|----------------------------|
E|----------------------------|

Guitar 1:
e|-----------------------------------------------------------|
B|-19~~~~~--------19~~~~~--------17~~~~~~------17~~~~~-------|
G|--------20~~~~~~-------20~~~~~~--------18~~~~-------18~~~~~|
D|-----------------------------------------------------------|
A|-----------------------------------------------------------|
E|-----------------------------------------------------------|

========================================
Guitars 2 and 3 should finish their parts at the end of Guitar 5's parts below v v v.

Guitar 1:
e|------------------------------------------------------------------------------|
B|-19~~~~~~~~~~---------19~~~~~~~~---------17~~~~~~~---------17~~~~~~~~---------|
G|-------------20~~~~~~~----------20~~~~~~~---------18~~~~~~~----------18~~~~~~~|
D|------------------------------------------------------------------------------| x2
A|------------------------------------------------------------------------------|
E|------------------------------------------------------------------------------|

Guitar 5:
e|------------------------------------------------------------------------------------|
B|-11-------11-------11------11-------9------9---9-----9---11-----11-----11-----11----|
G|-14---14-----------14--14----------12--12-----12--12-----14--14--------14--14-------|
D|-13----------13----13---------13---11---------11---------13--------13--13--------13-|
A|------------------------------------------------------------------------------------|
E|------------------------------------------------------------------------------------|

Guitar 5 Continued from above ^ ^:
e|--------------------------|
B|--9------9----9-------9---|
G|-12--12------12---12------|
D|-11----------11-----------|
A|--------------------------|
E|--------------------------|

=========================================
Guitar 5:
                                                                      .5___
e|-----------------------------------------------------------------------------|
B|-----------------------------------------------------------------------------|
G|----------17----18~~~~---------17----18~~~---------17----18-20-17--17b--(17)-|
D|-20-20-20----20-------20-20-20----20------20-20-20----20---------------------|
A|-----------------------------------------------------------------------------|
E|-----------------------------------------------------------------------------|

Guitar 2: Listen for timing.
e|------------------------------------------|
B|------------------------------------------|
G|-------------11~~---10~-------------------|
D|-8~~---11~---11~~---10~---8~--11~~---10~--| Play both of Guitar 2's parts
A|-8~~---11~---9~~~---8~~---8~--11~~---10~--| twice in all.
E|-6~~~---9~~---------------6~~--9~~---8~~--|

Guitar 2: Listen for timing.
e|-------------------------------|
B|-------------------------------|
G|------------11~---10~------11~-|
D|-8~---11~---11~---10~--8~--11~-|
A|-8~---11~---9~~---8~~--8~--9~~-|
E|-6~---9~~--------------6~------|

Guitar 4
e|---------------------------------------------|
B|-18~~~~~~~~~~19~~~~~~~18~~~~~~~19-18~~~~~~~~~|
G|---------------------------------------------|
D|---------------------------------------------|
A|---------------------------------------------|
E|---------------------------------------------|

===========================================
Guitar 5:
e|------------------------------------------------------------------------|
B|------------------------------------------------------------------------|
G|----------17----18~~~~---------17-18b--(18)~~~---------17----18-20-17~~~|
D|-20-20-20----20-------20-20-20----------------20-20-20----20------------|
A|------------------------------------------------------------------------|
E|------------------------------------------------------------------------|

Guitar 2 is still playing it's part here.

Guitar 4:
e|-----------------------------------------------|
B|-18~~~~~~~~~~~~~19~~~~~~~~~~~~18~~~~~~~~~~~~~~~|
G|-----------------------------------------------|
D|-----------------------------------------------|
A|-----------------------------------------------|
E|-----------------------------------------------|

============================================
Guitar 4:
e|--------------------------------------|
B|-18~~~~~~~~~~~~~~~~~~~19~~~~~~~~~~~~~~|
G|--------------------------------------|
D|--------------------------------------|
A|--------------------------------------|
E|--------------------------------------|

Guitar 2 is just finishing it's part here.

Guitar 5:
e|---------------------------------------------------------------------|
B|---------------------------------------------------------------------|
G|----18-17-18-17-----18-17-18-17-----18-17-18-17----20-18-17-18-17----|
D|-20-------------20--------------20--------------20----------------20-|
A|---------------------------------------------------------------------|
E|---------------------------------------------------------------------|

============================================
Guitar 4: Let each note ring. Listen for timing.
e|------------------------------|
B|-18~----19-18~-----19~--18~---|
G|------------------------------|
D|------------------------------|
A|------------------------------|
E|------------------------------|

Guitar 5:
e|--------------------------------------------------------------------------|
B|--------------------------------------------------------------------------|
G|-18-17-18-17-----------------------------/20-20h/22------22------20-22----|
D|-------------20-18--18h/20--20h/22~~-22\--------------20------20-------20-|
A|--------------------------------------------------------------------------|
E|--------------------------------------------------------------------------|

Guitar 6:
e|--------------------------------------------------------------------------------|
B|-------------------------------------------------14-13-14-13-----14-13-14-13----|
G|-18-17-18-17-------------------------/14--13--11-------------15--------------15-|
D|-------------20-18--18h/20--20p\15~~--------------------------------------------|
A|--------------------------------------------------------------------------------|
E|--------------------------------------------------------------------------------|

=============================================
Guitar 5:
                                                .5____
e|--------------------------------------------------------------|
B|------------------------------------/21--19--18b---(18)~~~~~~~|
G|----22------20-22----------22---------------------------------|
D|-20------20--------20---20-------20---------------------------|
A|--------------------------------------------------------------|
E|--------------------------------------------------------------|

Guitar 6:
e|--------------------------------------------------------------------|
B|--14-13-14-13-----16-14-13-14-13-----14-13-14-13--------------------|
G|--------------15-----------------15--------------15--13--/15--------|
D|-------------------------------------------------------------/15~~~~|
A|--------------------------------------------------------------------|
E|--------------------------------------------------------------------|

=============================================
Guitar 5:
e|---------------------|
B|-18~~~~~~~~~~~~~~~~~~|
G|---------------------|
D|---------------------|
A|---------------------|
E|---------------------|

Guitar 1:
e|----------------------------------------------------------------------------------|
B|-19~~~~~~--------19~~~~~~17~~~~~~--------17~~~~~19~~~~~------19~~~17~~~-----17~~~~|
G|---------20~~~~~~----------------18~~~~~~--------------20~~~~----------18~~~------|
D|----------------------------------------------------------------------------------|
A|----------------------------------------------------------------------------------|
E|----------------------------------------------------------------------------------|


Guitar 2:
e|-11----11----11----11-----9-----9-----9-----9--|
B|-11----11----11----11-----9-----9-----9-----9--|
G|-14----14----14----14----12----12----12----12--|
D|-13----13----13----13----11----11----11----11--| x1
A|-----------------------------------------------|
E|-----------------------------------------------|


Guitar 4:
e|----------------------------------------------------------|
B|-11~-----11------11~-----11-------9-------9----9-------9--|
G|-14~--14---------14~--14----------12--12-------12--12-----|
D|-13~--------13---13~--------13----11-----------11---------| x3
A|----------------------------------------------------------|
E|----------------------------------------------------------|



Please Rate and Comment.
[travis]
            
Submit corrections


        July 31st The Last Stand lessons Hard to play? Try these video lessons and learn fast July 31st The Last Stand lessons
        
↑ Back to top | Tablatures and chords for acoustic guitar and electric guitar, ukulele, drums are parodies/interpretations of the original songs. You may use it for private study, scholarship, research or language learning purposes only