» » »

John 5 - Damaged Tabs

Artists:  A B C D E F G H I J K L M N O P Q R S T U V W X Y Z # 

Damaged Tabs

(ver. 2) Click to play this song!
John 5
 Rating:
3.7/5 (6 votes)

 Damaged lessons Tabs too difficult? Try these video lessons and learn fast
 
                


{Intro:}

E|------------------------------------------------------------|
B|------------------------------------------------------------|
G|------------------------------------------------------------|
D|------------------------------------------------------------|
A|------------------------------------------------------------|
D|0000000000000---0000000000000---00000-00000-0000000000000---|


{Verse:}

E|------------------------------------------------------------|
B|------------------------------------------------------------|
G|------------------------------------------------------------|
D|0-3-3-0-6---0-3-3-0-6---0-3-0-------------------------------|
A|0-3-3-0-6---0-3-3-0-6---0-3-0-------------------------------|
D|0-3-3-0-6---0-3-3-0-6---0-3-0-------------------------------|


E|------------------------------------------------------------|
B|------------------------------------------------------------|
G|------------------------------------------------------------|
D|0-0---0-0---0-0---0-0---0-0---3-3---5-5-5-3-0---------------|
A|0-0---0-0---0-0---0-0---0-0---3-3---5-5-5-3-0---------------|
D|0-0---0-0---0-0---0-0---0-0---3-3---5-5-5-3-0---------------|


{Chorus}:

E|------------------------------------------------------------|
B|------------------------------------------------------------|
G|------------------------------------------------------------|
D|0-000000--3-333333--5-555555--88887777----------------------|
A|0-000000--3-333333--5-555555--88887777----------------------|
D|0-000000--3-333333--5-555555--88887777----------------------|


{Bridge:}

E|------------------------------------------------------------|
B|------------------------------------------------------------|
G|------------------------------------------------------------|
D|------------------------------------------------------------|
A|------------------------------------------------------------|
D|0-1-1-0-1-1-0-1-1-0-1-1-0-1-0-------------------------------|


{Outro:}

E|------------------------------------------------------------|
B|------------------------------------------------------------|
G|------------------------------------------------------------|
D|2-2--2-2--2-2--2-2--5-5--2-2--2-2--2-2--2-2--0-0------------|
A|2-2--2-2--2-2--2-2--5-5--2-2--2-2--2-2--2-2--0-0------------|
D|2-2--2-2--2-2--2-2--5-5--2-2--2-2--2-2--2-2--0-0------------|
            
Submit corrections


        Damaged lessons Hard to play? Try these video lessons and learn fast Damaged lessons
        
↑ Back to top | Tablatures and chords for acoustic guitar and electric guitar, ukulele, drums are parodies/interpretations of the original songs. You may use it for private study, scholarship, research or language learning purposes only