» » »

John 5 - Creepy Crawler Tabs

Artists:  A B C D E F G H I J K L M N O P Q R S T U V W X Y Z # 

Creepy Crawler Tabs

(ver. 2) Click to play this song!
John 5
 Rating:
3.5/5 (24 votes)

 Creepy Crawler lessons Tabs too difficult? Try these video lessons and learn fast
 
                e|---0--------0--------0----------0--------0---|
B|-------3--------6--------3--------3--------3-|
G|-0---0----0---0----0---0-------0--------0----|
D|-----------------------------2--------2------|
A|---------------------------------------------|
E|---------------------------------------------|

-----0--------0--------0------------0-----1-0---------|
---------3--------6--------3----------3--------3-1----|
---0---0----0---0----0---0--------0-------------------|    X2
--------------------------------2---------------------|
------------------------------------------------------|
------------------------------------------------------|


e|----------------------------------------------------|
B|-3-8-10-10-11---3-8-11-10-10-11h/-8----3-8-10-10-11-|
G|----------------------------------------------------|
D|----------------------------------------------------|
A|----------------------------------------------------|
E|----------------------------------------------------|


-------------0--------0--------0-------0------0-------0---|
---3-8-10-11-------10--------8-------6------5------3--0---|
------------------------------------------------------0---|
------------------------------------------------------0---|
----------13--13---12--12---10--10---8------7--7---5--2---|
------------------------------------------------------3---|

e|-------------------------------------------------------------|
B|-3/-10-6---3/-10-6----3--8-6-3---3/-10-6---3/-10-6---3-6--12-|
G|----------------------------------------------------------12-|
D|-------------------------------------------------------------|
A|-------------------------------------------------------------|
E|-------------------------------------------------------------|


e|---0--------0--------0----------0--------0--------0--------0--------0------|
B|-------3--------6--------3--------3--------3----------3--------6--------3--|
G|-0---0----0---0----0---0-------0--------0-------0---0----0---0----0---0----|
D|-----------------------------2--------2------------------------------------|
A|---------------------------------------------------------------------------|
E|---------------------------------------------------------------------------|


------0-----1-0---------|
--------3--------3-1----|
----0-------------------|   X2
--2---------------------|
------------------------|
------------------------|


e|------------------------------------------------------|
B|-3-8-10-10-11---3-8-11-10-10-11h/-8-8-10h/-6-5-6h/3---|
G|------------------------------------------------------|
D|------------------------------------------------------|
A|------------------------------------------------------|
E|------------------------------------------------------|


--------------------------------0--------0--------0-------0------0-------0---|
------3-8-10-10-11----3-8-10-11-------10--------8-------6------5------3--0---|
-------------------------------------------------------------------------0---|
-------------------------------------------------------------------------0---|
-----------------------------13--13---12--12---10--10---8------7--7---5--2---|
-------------------------------------------------------------------------3---|


e|----------------------------------------------------------3--|
B|-3/-10-6---3/-10-6----3--8-6-3---3/-10-6---3/-10-6---3-6--2--|
G|----------------------------------------------------------0--|  X2
D|----------------------------------------------------------0--|
A|----------------------------------------------------------0--|
E|----------------------------------------------------------3--|


e|-0--------------0-------------------------0-------0-------|
B|-5-5-------7-8--5--------7-8-8-------7-5--3-------3-------|
G|-----0------------0------------0------------0-------0-----|
D|-------0------------0------------0------------0-------0---|
A|-7-------7-7-7--7-----7--7-7-7-----7-7-7--5-----5-------5-|
E|----------------------------------------------------------|

--0-------------0-------------------------------0-------------------|
--5-5------7-8--5-5--------7--8-8-------8/10/3--3-3--------3--------|
------0-------------0-------------0-----------------0--------0------| 2X
--------0-------------0-------------0-----------------0--------0----|
--7------7-7-7--7-------7--7--7-------7-7/9-/5--5-------5--------5--|
--------------------------------------------------------------------|

e|----------------------------------------------------------------|
B|-3/-10-6---3/-10-6----3--8-6-3---3/-10-6---3/-10-6---3-6h-3/2---|
G|----------------------------------------------------------------|      2X
D|----------------------------------------------------------------|
A|----------------------------------------------------------------|
E|----------------------------------------------------------------|

e|------0--------0--------0------------0-----1-0---------|
B|----------3--------6--------3----------3--------3-1----|
G|----0---0----0---0----0---0--------0-------------------|
D|---------------------------------2---------------------|
A|-------------------------------------------------------|
E|-------------------------------------------------------|
            
Submit corrections


        Creepy Crawler lessons Hard to play? Try these video lessons and learn fast Creepy Crawler lessons
        
↑ Back to top | Tablatures and chords for acoustic guitar and electric guitar, ukulele, drums are parodies/interpretations of the original songs. You may use it for private study, scholarship, research or language learning purposes only