Home » J » John 5 »

John 5 - Blues Balls Tabs

Artists:  A B C D E F G H I J K L M N O P Q R S T U V W X Y Z # 

Blues Balls Tabs

(ver. 1) Click to play this song!
John 5
(Intro)
i could only tabb th intro cos twas hard n i suk
ne way heres wot i got...

john-5 "blues balls" or it could be "SOUL OF A ROBOT" (read comments)

e|--------------------------------------------|
B|--------------------------------------------|
G|-9\\--------9\\--------9\\--------9---9-----|
D|-9\\---578--9\\---575--9\\---578--9---9---3-|
A|-7\\-0-578--7\\-0-575--7\\-0-578--7---7---3-|
E|-----00356------00353------00356---000-0001-| x2

short and sweet x
any comment welcome via comments :>

ps if the verse guitar is actual playin which im not sure about i presume it would b like
   
e|-15p1315p1315p1315p1315p13-------|
B|--------------------------15p13vB|
G|---------------------------------|
D|---------------------------------|
A|---------------------------------|x2
E|---------------------------------|

e|-17p1517p1517p1517p1517p15-------|
B|--------------------------17p15vB|
G|---------------------------------|
D|---------------------------------|
A|---------------------------------|x2
E|---------------------------------|
++++++++++++play twice+++++++++++++

e|-15p1315p1315p1315p1315p1313p1113p11-|
B|-------------------------------------|
G|-------------------------------------|
D|-------------------------------------|
A|-------------------------------------|
E|-------------------------------------|

e|-15p1315p1315p1315p1315p13- 13- 13---|
B|--------------------------12- 12-----|
G|-------------------------------------|
D|-------------------------------------|
A|-------------------------------------|
E|-------------------------------------|

e|-15p1315p1315p1315p1315p1313p1113p11-|
B|-------------------------------------|
G|-------------------------------------|
D|-------------------------------------|
A|-------------------------------------|
E|-------------------------------------|

e|-15p1315p1315p1315p1315p1315p1315p13-|
B|-------------------------------------|
G|-------------------------------------|
D|-------------------------------------|
A|-------------------------------------|
E|-------------------------------------|

actually thats even harder then i thaught but when thats done you go back to the intro
    please rate  spill
            
Submit corrections

↑ Back to top | Tablatures and chords for acoustic guitar and electric guitar, ukulele, drums are parodies/interpretations of the original songs. You may use it for private study, scholarship, research or language learning purposes only