» » »

John 5 - Black Widow Of La Porte Tabs

Artists:  A B C D E F G H I J K L M N O P Q R S T U V W X Y Z # 

Black Widow Of La Porte Tabs

(ver. 2) Click to play this song!
John 5
 Rating:
4/5 (4 votes)

 Black Widow Of La Porte lessons Tabs too difficult? Try these video lessons and learn fast
 
                
BLACK WIDOW OF LA PORTE
As recorded by John 5
(From the 2007 Album THE DEVIL KNOWS MY NAME)

        

Words and Music by John 5

Gtr I (E A D G B E) - 'Clean w/ Fingers and Chorus'
Gtr II (E A D G B E) - 'Distortion'
Gtr III (E A D G B E) - 'Distortion 2'
Gtr IV (E A D G B E) - 'Distortion 3'
Gtr V (B E A D Gb B) - 'De-Tuned 1'
Gtr VI (Db Gb B E Ab Db) - 'De-Tuned 2'

 A
  Moderately Q=119
 1/4  4/4
  Gtr I
  Q    E E E E E E E E   E E E E Q  Q
|----|-----------------|---------------|
|----|-----------------|---------------|
|----|-------0---------|---0-----------|
|----|-2p0h2---2---2p0h|=2---2------0--|
|----|-----------------|---------2-----|
|----|-0---------0-----|-------0-------|


  E E E E E E Q    +W           E E E E E E E E   E E E E Q  Q
|----------------|------------|-----------------|---------------|
|-------------0--|-(0)--------|-----------------|---------------|
|-------0-----3--|-(3)--------|-------0---------|---0-----------|
|-2p0h2---2------|------------|-2p0h2---2---2p0h|=2---2------0--|
|----------------|------------|-----------------|---------2-----|
|-0---------0----|------------|-0---------0-----|-------0-------|


                                B
                                 Faster Q=181
                                2/4  4/4
                                 Gtr II
                                        PM----------|
  E E E E E E Q    +W            H    E E E E E E E E
|----------------|------------||----|-----------------|
|-------------0--|-(0)--------||----|-----------------|
|-------0-----3--|-(3)--------||----|-----------------|
|-2p0h2---2------|------------||----|-----------------|
|----------------|------------||----|-2-5-5-6-6-6-7-7-|
|-0---------0----|------------||----|-0-3-3-4-4-4-5-5-|


  PM----|             PM--------------------|
  E E E E E E Q     E E E E E E E E   E E E E E E Q
|-----------------|-----------------|-----------------|
|-----------------|-----------------|-----------------|
|---------7s9-9\--|-----------------|---------7s9-7\--|
|---------7s9-9\--|-----------------|---------7s9-7\--|
|-7-8-8-0-5s7-7\--|-2-5-5-6-6-6-7-7-|-7-8-8-0-5s7-5\--|
|-5-6-6-0---------|-0-3-3-4-4-4-5-5-|-5-6-6-0---------|


  Gtr III
  E  E  E  E  E  E  E  E    E  E  E E  E  E  E  E   E  E  E  E  E  E  E  E
|------------------------|------------------------|------------------------|
|------------------------|------------15s17-17--x-|------------------------|
|-9S12-12S13-13-13S14-14-|-14S15-15-0-----------x-|-9S12-12S13-13-13S14-14-|
|------------------------|----------0-12s14-14--x-|------------------------|
|-7S10-10S11-11-11S12-12-|-12S13-13-0-------------|-7S10-10S11-11-11S12-12-|
|------------------------|------------------------|------------------------|
|
| Gtr II
| E  E  E  E  E  E  E  E    E  E  E E  E  E  Q      E  E  E  E  E  E  E  E
|------------------------|------------------------|------------------------|
|------------------------|------------------------|------------------------|
|------------------------|-------------7s=9--7\---|------------------------|
|------------------------|----------0--7s=9--7\---|------------------------|
|-2--5--5--6--6--6--7--7-|--7--8--8-0--5s=7--5\---|-2--5--5--6--6--6--7--7-|
|-0--3--3--4--4--4--5--5-|--5--6--6-0-------------|-0--3--3--4--4--4--5--5-|


   E  E  E E  E  E  Q      +W                   +W
|-----------------------|--------------------|-------------------|
|------------15s17-17---|-(17)---------------|-(17)--------------|
|-14S15-15-0------------|--------------------|-------------------|
|----------0-12s14-14---|-(14)---------------|-(14)--------------|
|-12S13-13-0------------|--------------------|-------------------|
|-----------------------|--------------------|-------------------|
|
|                           PM-|   PM--|   PM-------|   PM--|
|  E  E  E E  E  E  Q       E  E E E E E E E     E  E E E E E Q
|-----------------------|--------------------|-------------------|
|-----------------------|--------------------|-------------------|
|-------------7s=9--7\--|--------------------|-------------------|
|----------0--7s=9--7\--|--------------------|-------------------|
|--7--8--8-0--5s=7--5\--|---2--2-3-2-2-2-3-2-|---2--2-3-2-2-2-5--|
|--5--6--6-0------------|---0--0-1-0-0-0-1-0-|---0--0-1-0-0-0-3--|


    >
   +W                   +W                  +W
|--------------------|-------------------|--------------------|
|-(17)---------------|-(17)--------------|-(17)---------------|
|--------------------|-------------------|--------------------|
|-(14)---------------|-(14)--------------|-(14)---------------|
|--------------------|-------------------|--------------------|
|--------------------|-------------------|--------------------|
|
|   PM-|   PM--|   PM-------|   PM--------------|   PM--|   PM
|                                 |-3-|
|   E  E E E E E E E     E  E E E Q Q Q      E  E E E E E E E
|--------------------|-------------------|--------------------|
|--------------------|-------------------|--------------------|
|--------------------|-------------------|--------------------|
|--------------------|-------------------|--------------------|
|---2--2-3-2-2-2-3-2-|---2--2-3-2-5-4-3--|---2--2-3-2-2-2-3-2-|
|---0--0-1-0-0-0-1-0-|---0--0-1-0-3-2-1--|---0--0-1-0-0-0-1-0-|


   +W                  +W                  W
|-------------------|--------------------|------||
|-(17)--------------|-(17)---------------|------||
|-------------------|--------------------|------||
|-(14)--------------|-(14)---------------|------||
|-------------------|--------------------|------||
|-------------------|--------------------|------||
|
|   PM-|   PM--|        PM-|   PM--|
|   E  E E E E E Q      E  E E E E E E E   W
|-------------------|--------------------|------||
|-------------------|--------------------|------||
|-------------------|--------------------|------||
|-------------------|--------------------|------||
|---2--2-3-2-2-2-5--|---2--2-3-2-2-2-3-2-|------||
|---0--0-1-0-0-0-3--|---0--0-1-0-0-0-1-0-|------||


 C
      |--3--|            |-3--|     |-3-|
  S S S S   S S S  S  S  S  S S S S S S S S S
|---------------------------------------------|
|-5-7-8p7p==5-7-8-/8-10-11p10p8S5-7-8p7p5-7-8-|
|---------------------------------------------|
|---------------------------------------------|
|---------------------------------------------|
|---------------------------------------------|
|
| PM------|                               PM---
| S S S   S   E    Q            E   E     E
|---------------------------------------------|
|---------------------------------------------|
|---------------------------------------------|
|-------------2-----------------2-------------|
|-------------2-----------------2---------2---|
|-0-0-0---0---0-----------------0---------0---|


         |--3---|        |--3--|       |--3---|        |--3--|
   S  S  S  S   S  S  S  S  S  S S  S  S  S   S  S  S  S  S  S
|---------------------------------------------------------------|
|-/8-10-11p10p==8S10-12-13p12p10S8-10-11p10p==8S10-12-13p12p10--|
|---------------------------------------------------------------|
|---------------------------------------------------------------|
|---------------------------------------------------------------|
|---------------------------------------------------------------|
|
|-------------|                  PM---------|
|  S  S  S    S    E     E       S  S  S    S    E     E
|---------------------------------------------------------------|
|---------------------------------------------------------------|
|---------------------------------------------------------------|
|------------------2-----------------------------2--------------|
|------------------2-----------------------------2--------------|
|--0--0--0----0----0-------------0--0--0----0----0--------------|


        |--3---|               |--3--|       |-3--|
  S  S  S  S   S  S  S   S  S  S  S  S S  S  S  S S  S  S
|---------------------------------------------------------|
|-8-10-11p10p==8-10-11-/11-13-14p13p11S8-10-11p10p8S11-13-|
|---------------------------------------------------------|
|---------------------------------------------------------|
|---------------------------------------------------------|
|---------------------------------------------------------|
|
| PM---------|                                       PM----
| S  S  S    S    E      Q             E     E       E
|---------------------------------------------------------|
|---------------------------------------------------------|
|---------------------------------------------------------|
|-----------------5--------------------5------------------|
|-----------------5--------------------5------------------|
|-3--3--3----3----3--------------------3-------------0----|


   |---3---|        |--3--|
   S  S    S  S  S  S  S  S  S  S  Q           +E      E
|---------------------------------------------------------|
|-14p13p==11S13-15-16p15p13S15-16-18b20r======(18)b20\----|
|---------------------------------------------------------|
|---------------------------------------------------------|
|---------------------------------------------------------|
|---------------------------------------------------------|
|
|---------------|                  PM-------|
|  S    S     S  S  E        E     S    S S S   E      E
|---------------------------------------------------------|
|---------------------------------------------------------|
|---------------------------------------------------------|
|-------------------5---------------------------5---------|
|-------------------5---------------------------5---------|
|--3----3-----3--3--3--------------3----3-3-3---3---------|


  |--3--|       |-3-|     |-3-|     |-3-|
  S S   S  S S  S S S S S S S S S S S S S S S
|-5h7h==8-/7-9-10p9p7S5-7-8p7p5-5-------------|
|---------------------------------8-8p7p5S7-9-|
|---------------------------------------------|
|---------------------------------------------|
|---------------------------------------------|
|---------------------------------------------|
|
| PM---------|                            PM---
| S   S    S S  E     Q         E   E     E
|---------------------------------------------|
|---------------------------------------------|
|---------------------------------------------|
|---------------7---------------7-------------|
|---------------7---------------7-------------|
|-5---5----5-5--5---------------5---------0---|


   |--3--|     |-3-|
   S S   S S S S S S S S S S S S E E
|------------------------------------|
|-10p9p==7S5-7-8p7p5-5-5-------------|
|------------------------8-7-5-5-7-7-|
|------------------------------------|
|------------------------------------|
|------------------------------------|
|
|------------|           PM----|
|  S   S   S S E     E   S S S S E E
|------------------------------------|
|------------------------------------|
|------------------------------------|
|--------------7-----------------7---|
|--------------7-----------------7---|
|--5---5---5-5-5---------5-5-5-5-5---|


  ~~~~
                                 |---------3---------|
  H.                +E.   +S     Q        +Q        +Q      +Q          +Q
|-----------------------------|------------------------------------------------|
|-----------------------------|------------------------------------------------|
|-7b9===============(7)r==(7)-|-[7]b9r====(7)b9r====(7)b9r==(7)b9-------(7)\---|
|-----------------------------|------------------------------------------------|
|-----------------------------|------------------------------------------------|
|-----------------------------|------------------------------------------------|
|
| PM-------|            PM----------------------|            PM-------|
| S    S S S E Q  E  E  E        S    S S       S E       E  S    S S S  E   E
|-----------------------------|------------------------------------------------|
|-----------------------------|------------------------------------------------|
|-----------------------------|------------------------------------------------|
|------------2----2-----------|-------------------2----------------------2-----|
|------------2----2-----2-----|-------------------2----------------------2-----|
|-0----0-0-0-0----0-----0-----|--0----0-0-------0-0----------0----0-0-0--0-----|


      |--3--|            |-3--|               |--3--|
  S S S S   S S S  S  S  S  S S  S  S   S  S  S  S  S
|-----------------------------------------------------|
|-5-7-8p7p==5-7-8-/8-10-11p10p8-10-11-/10-12-13p12p10S|
|-----------------------------------------------------|
|-----------------------------------------------------|
|-----------------------------------------------------|
|-----------------------------------------------------|
|
| PM------|                                   PM-------
| S S S   S   E    Q             E      E     E
|-----------------------------------------------------|
|-----------------------------------------------------|
|-----------------------------------------------------|
|-------------2------------------2--------------------|
|-------------2------------------2------------2-------|
|-0-0-0---0---0------------------0------------0-------|


      |--3--|            |--3---|               |--3--|
  S S S S   S S S  S  S  S  S   S  S  S   S  S  S  S  S
|----------------------------------------------------------|
|-5-7-8p7p==5-7-8-/8-10-11p10p==8-10-11-/10-12-13p12p10S===|
|----------------------------------------------------------|
|----------------------------------------------------------|
|----------------------------------------------------------|
|----------------------------------------------------------|
|
|---------|              PM----------|
| S S S   S   E    E     S    S    S  S   E     E
|----------------------------------------------------------|
|----------------------------------------------------------|
|----------------------------------------------------------|
|-------------2---------------------------2----------------|
|-------------2---------------------------2----------------|
|-0-0-0---0---0----------0----0----0--0---0----------------|


        |--3---|               |--3--|               |--3--|
  S  S  S  S   S  S  S   S  S  S  S  S  S  S   S  S  S  S  S
|------------------------------------------------------------|
|-8-10-11p10p==8-10-11-/11-13-14p13p11-13-14-/13-15-16p15p13S|
|------------------------------------------------------------|
|------------------------------------------------------------|
|------------------------------------------------------------|
|------------------------------------------------------------|
|
| PM---------|                                       PM-------
| S  S  S    S    E      Q              E      E     E
|------------------------------------------------------------|
|------------------------------------------------------------|
|------------------------------------------------------------|
|-----------------5---------------------5--------------------|
|-----------------5---------------------5--------------------|
|-3--3--3----3----3---------------------3------------0-------|


        |--3---|               |---3---|               |--3--|
  S  S  S  S   S  S  S   S  S  S  S    S  S  S   S  S  S  S  S
|-----------------------------------------------------------------|
|-8-10-11p10p==8-10-11-/11-13-14p13p==11-13-14-/13-15-16p15p13\---|
|-----------------------------------------------------------------|
|-----------------------------------------------------------------|
|-----------------------------------------------------------------|
|-----------------------------------------------------------------|
|
|------------|                 PM-----------|
| S  S  S    S    E      E     S    S     S  S   E     E
|-----------------------------------------------------------------|
|-----------------------------------------------------------------|
|-----------------------------------------------------------------|
|-----------------5------------------------------5----------------|
|-----------------5------------------------------5----------------|
|-3--3--3----3----3------------3----3-----3--3---3----------------|


   a  E    S  S  a  E  E  E  E  E  S  S
|---------------------------------------|
|---------------------------------12h16p|
|---------------------12-14-12-14-------|
|---------10-10-12s14-------------------|
|-10s12---------------------------------|
|---------------------------------------|
|
|     PM-----|                     PM----
|     S S  S  S     E  Q     E  E  E
|---------------------------------------|
|---------------------------------------|
|---------------------------------------|
|-------------------7--------7----------|
|-------------------7--------7----------|
|-----5-5--5--5-----5--------5-----0----|


               |------5------|  |--------5--------|
   S  S  S  S  S  S  S    S  S  S  S    S    S    S  S  S  E
|------------------------------------------------------------|
|-12----12h16p12----12h==16p12----12h==16p==12------12h15p12-|
|----14----------14------------14----------------14----------|
|------------------------------------------------------------|
|------------------------------------------------------------|
|------------------------------------------------------------|
|
|----------|                    PM-------------|
|  S  S  S  S  E       E        S    S    S    S     E     E
|------------------------------------------------------------|
|------------------------------------------------------------|
|------------------------------------------------------------|
|--------------7-------------------------------------7-------|
|--------------7-------------------------------------7-------|
|--5--5--5--5--5----------------5----5----5----5-----5-------|


                                                             ~~~~~
                                 |---------3---------|
   H               H             Q         Q         Q       H
|-----------------------------|---------------------------------------------||
|-15b17-----------15b17-------|-15b17-----15b17-----15b17---15b17-----------||
|-----------------------------|---------------------------------------------||
|-----------------------------|---------------------------------------------||
|-----------------------------|---------------------------------------------||
|-----------------------------|---------------------------------------------||
|
| Gtr IV
|  W                             W
|-----------------------------|---------------------------------------------||
|-----------------------------|---------------------------------------------||
|-----------------------------|---------------------------------------------||
|-----------------------------|---------------------------------------------||
|-----------------------------|---------------------------------------------||
|-----------------------------|---------------------------------------------||
|
| Gtr II
|  PM-------|               PM------------------|            PM-------|
|  S    S S S E Q       E E E    S    S S       S E       E  S    S S S E E
|-----------------------------|---------------------------------------------||
|-----------------------------|---------------------------------------------||
|-----------------------------|---------------------------------------------||
|-------------2---------2-----|-------------------2---------------------2---||
|-------------2---------2---2-|-------------------2---------------------2---||
|--0----0-0-0-0---------0---0-|--0----0-0-------0-0----------0----0-0-0-0---||


 D
  a E E E  E  E  E E E    E   E  Q   E E  E  S S
|----------------------|---------------------------|
|----------------------|---------------------------|
|-7s9-7-9S12-12-12S9-7-|--9S=12-12S==4-4S=7--7-7---|
|----------------------|---------------------------|
|----------------------|---------------------------|
|----------------------|---------------------------|
|
|   W                    +H.             +Q
|----------------------|---------------------------|
|----------------------|---------------------------|
|---4------------------|-(4)-------------(4)S======|
|----------------------|---------------------------|
|---2------------------|-(2)-------------(2)S======|
|----------------------|---------------------------|
|
|       PM---------------|       PM|   PM    PM
|   Q   E  E  E  E E E    E   E  E E E E  E  E
|----------------------|---------------------------|
|----------------------|---------------------------|
|----------------------|---------------------------|
|---2------------------|------2------2----2--------|
|---2---2--2--2--2-2-2-|--2---2--2-2-2-2--2--------|
|---0---0--0--0--0-0-0-|--0---0--0-0-0-0--0--0-----|


  E E E  E  E  E E E    E   E  E E   E  +E      +E   +E    E E E  E  E  E E E
|--------------------|-----------------------------------|--------------------|
|--------------------|-----------------------------------|--------------------|
|-9-7-9S12-12-12S9-7-|--9S=12-12-9-/15-(15)b17-(15)-(15)S|=9-7-9S12-12-12S9-7-|
|--------------------|-----------------------------------|--------------------|
|--------------------|-----------------------------------|--------------------|
|--------------------|-----------------------------------|--------------------|
|
| W                    +H.                      +Q         W
|--------------------|-----------------------------------|--------------------|
|--------------------|-----------------------------------|--------------------|
|-7------------------|-(7)----------------------(7)S=====|=9------------------|
|--------------------|-----------------------------------|--------------------|
|-5------------------|-(5)----------------------(5)S=====|=7------------------|
|--------------------|-----------------------------------|--------------------|
|
|     PM---------------|       PM|       PM           PM       PM-----------|
| Q   E  E  E  E E E    E   E  E E   E   E       E    E    Q   E  E  E  E E E
|--------------------|-----------------------------------|--------------------|
|--------------------|-----------------------------------|--------------------|
|-7------------------|------7--------7-----------7-------|--------------------|
|-7------------------|------7--------7-----------7-------|-7------------------|
|-5---5--5--5--5-5-5-|--5---5--5-5---5---5-------5----5--|-5---7--7--7--7-7-7-|
|-5---5--5--5--5-5-5-|--5---5--5-5---5---5-------5----5--|-5---5--5--5--5-5-5-|


   E   E  S S S S  S S S  S  S  S S S   E E E  E  E  E Q
|-------------7h9h10p9p7--------------|---------------------|
|------------------------10p=8p=7-----|---------------------|
|--9S=12-12s0---------------------9p7-|-9-7-9S12-12-12-9/---|
|-------------------------------------|---------------------|
|-------------------------------------|---------------------|
|-------------------------------------|---------------------|
|
| +H.                       +Q          W
|-------------------------------------|---------------------|
|-------------------------------------|---------------------|
|-(9)-----------------------(9)S======|=4-------------------|
|-------------------------------------|---------------------|
|-(7)-----------------------(7)S======|=2-------------------|
|-------------------------------------|---------------------|
|
|  PM     PM--|        PM                   PM---------------
|  E   E  E   E    E   E     E    E     Q   E  E  E  E E  E
|-------------------------------------|---------------------|
|-------------------------------------|---------------------|
|-------------------------------------|---------------------|
|------7-----------7---------7\-------|-2-------------------|
|--7---7--7---7----7---7-----7\---x---|-2---2--2--2--2-2--2-|
|--5---5--5---5----5---5-----5\---x---|-0---0--0--0--0-0--0-|


          PM------|         PM------|
   S   S  S  S  S  S  S  S  S  S  S  S  Q
|--------------------------------------------|
|-17p=14-------------17p14-------------17\---|
|--------15-15-15-15-------15-15-15-15-------|
|--------------------------------------------|
|--------------------------------------------|
|--------------------------------------------|
|
| +E      E     Q           E     E     Q
|--------------------------------------------|
|--------------------------------------------|
|-(4)-----5-----------------5-----------5----|
|--------------------------------------------|
|-(2)-----3-----------------3-----------3----|
|--------------------------------------------|
|
|-|             PM---|            PM
|  E      E     E     E     E     E     Q
|--------------------------------------------|
|--------------------------------------------|
|--------------------------------------------|
|--------------------------------------------|
|--2------3-----------------3-----------3----|
|--0------1-----0-----0-----1-----0-----1----|


  Gtr II
  PM|   PM--|   PM----|   PM--|      PM|   PM--|   PM----|   PM--|
  E E E E E E E E   E E E E E E Q    E E E E E E E E   E E E E E E Q
|-----------------|----------------|-----------------|----------------|
|-----------------|----------------|-----------------|----------------|
|-----------------|----------------|-----------------|----------------|
|-----------------|----------------|-----------------|----------------|
|-2-2-3-2-2-2-3-2-|-2-2-3-2-2-2-5--|-2-2-3-2-2-2-3-2-|-2-2-3-2-5-4-3--|
|-0-0-1-0-0-0-1-0-|-0-0-1-0-0-0-3--|-0-0-1-0-0-0-1-0-|-0-0-1-0-3-2-1--|


  PM|   PM--|   PM----|   PM--|      PM|   PM--|
  E E E E E E E E   E E E E E E Q    E E E E E E E E   W
|-----------------|----------------|-----------------|------||
|-----------------|----------------|-----------------|------||
|-----------------|----------------|-----------------|------||
|-----------------|----------------|-----------------|------||
|-2-2-3-2-2-2-3-2-|-2-2-3-2-2-2-5--|-2-2-3-2-2-2-3-2-|------||
|-0-0-1-0-0-0-1-0-|-0-0-1-0-0-0-3--|-0-0-1-0-0-0-1-0-|------||


 E
  Gtrs III, IV
             |3-|                   |3-|
   S S S T T E  Q    S  S  S  T  T  E  Q
|-10p7-------7-10S==15p12----------12-15---|
|------7---8--------------12----12---------|
|--------9-------------------12------------|
|------------------------------------------|
|------------------------------------------|
|------------------------------------------|
|
| Gtr II
|  PM----|                               PM-
|  S S S S   E    Q        E        E    E
|------------------------------------------|
|------------------------------------------|
|------------------------------------------|
|------------2-------------2---------------|
|------------2-------------2-------------2-|
|--0-0-0-0---0-------------0-------------0-|


                       ~~~
   Q        E     +E   Q.          +E
|-17-------20b22r(20)-------------------|
|---------------------17----------(17)\-|
|---------------------------------------|
|---------------------------------------|
|---------------------------------------|
|---------------------------------------|
|
|--------|             PM-----|
|  S S S S  E      E   S  S S S E   E
|---------------------------------------|
|---------------------------------------|
|---------------------------------------|
|-----------2-------------------2-------|
|-----------2-------------------2-------|
|--0-0-0-0--0----------0--0-0-0-0-------|


                  |3-|
   S  S  S  T  T  E  Q    S  S  S  T  T  E  E
|-13p10----------19-13S==18p15----------15-18S|
|-------10----11---------------15----15-------|
|----------12---------------------15----------|
|---------------------------------------------|
|---------------------------------------------|
|---------------------------------------------|
|
|  PM------|                                PM-
|  S  S  S  S     E    Q        E        E  E
|---------------------------------------------|
|---------------------------------------------|
|---------------------------------------------|
|-----------------5-------------5-------------|
|-----------------5-------------5-------------|
|--3--3--3--3-----3-------------3-----------0-|


         |---3---|  |--3--|
   S  S  S  S    S  S  S  S  S  S  E       +E     E  T T T T
|-10h12h13p12p==10-----------------------------------------5-|
|------------------13p12p10------------------------------5---|
|---------------------------12-10-12b14r==(12)---10\---5-----|
|----------------------------------------------------7-------|
|------------------------------------------------------------|
|------------------------------------------------------------|
|
|-------------|                    PM----------|
|  S  S  S    S     E        E     S    S   S  S  E  E
|------------------------------------------------------------|
|------------------------------------------------------------|
|------------------------------------------------------------|
|-------------------5-----------------------------5----------|
|-------------------5-----------------------------5----------|
|--3--3--3----3-----3--------------3----3---3--3--3----------|


                                                      |-3-|
  E   T T T T E T T T T E T T T T E S S   S S S S S S S S S E     +E    Q
|-8---------5-8-------5-8-------5-8-5h7h|=8p7p5-----------------------------|
|---------5---------5---------5---------|-------8p7p5-----------------------|
|-------5---------5---------5-----------|-------------8p7p5-7b9r==(7)---5---|
|-----7---------7---------7-------------|-----------------------------------|
|---------------------------------------|-----------------------------------|
|---------------------------------------|-----------------------------------|
|
| PM------|                         PM----------|           PM--------|
| S S S   S   E Q         E       E E     S S S S E   E     S   S  S  S E E
|---------------------------------------|-----------------------------------|
|---------------------------------------|-----------------------------------|
|---------------------------------------|-----------------------------------|
|-------------7-----------7-------------|---------7---------------------7---|
|-------------7-----------7-------------|---------7---------------------7---|
|-5-5-5---5---5-----------5---------0---|-5-5-5-5-5---------5---5--5--5-5---|


                              |---------3---------|
   H.                +Q       Q        +Q        +Q      +Q          +Q
|--------------------------|------------------------------------------------|
|--------------------------|------------------------------------------------|
|-[7]b9--------------(7)---|-[7]b9r====(7)b9r====(7)b9r==(7)b9-------(7)\---|
|--------------------------|------------------------------------------------|
|--------------------------|------------------------------------------------|
|--------------------------|------------------------------------------------|
|
| Gtr IV
|                             |---------3---------|
|  H.                +Q       Q        +Q        +Q      +Q          +Q
|--------------------------|------------------------------------------------|
|--------------------------|------------------------------------------------|
|--7b9---------------(7)---|--7b9r=====(7)b9r====(7)b9r==(7)b9-------(7)\---|
|--------------------------|------------------------------------------------|
|--------------------------|------------------------------------------------|
|--------------------------|------------------------------------------------|
|
| Gtr II
|  PM-------|            PM------------------|            PM-------|
|  S    S S S E Q  E  E  E    S    S S       S E       E  S    S S S  E   E
|--------------------------|------------------------------------------------|
|--------------------------|------------------------------------------------|
|--------------------------|------------------------------------------------|
|-------------2----2-------|-------------------2----------------------2-----|
|-------------2----2-----2-|-------------------2----------------------2-----|
|--0----0-0-0-0----0-----0-|--0----0-0-------0-0----------0----0-0-0--0-----|


  PM--|      PM
                    |-3-|
  E   E    E E S S  S S S E E
|------------------------------|
|------------------------------|
|---------10---7h9h10p9p7S5----|
|-----9------9-----------------|
|-7-------------------------5--|
|------------------------------|
|
| PM--|      PM
|                   |-3-|
| E   E    E E S S  S S S E E
|------------------------------|
|------------------------------|
|---------10---7h9h10p9p7S5----|
|-----9------9-----------------|
|-7-------------------------5s=|
|------------------------------|
|
| PM----|                   PM
| S S S S  E Q      E     E E
|------------------------------|
|------------------------------|
|------------------------------|
|----------2--------2----------|
|----------2--------2-------2--|
|-0-0-0-0--0--------0-------0--|


  Gtrs III, IV
      PM     PM                      PM--|        PM
                                                           |--3--|
  E   E    E E S S  S S S  S S S     E    E    E  E  S  S  S  S  S E E
|--------------------------------|-------------------------------------|
|--------------------------------|-------------------------------------|
|---------10----------7h9h10p9p7-|------------13----10h12h13p12p10S8---|
|-----9------9-7h9h10------------|-------12------12--------------------|
|-7------------------------------|-/10-------------------------------8s|
|--------------------------------|-------------------------------------|
|
| Gtr II
| PM----|      PM-----|              PM-----|                        PM-
| S S S S  E E S S  S S E    E       S S  S S  E  Q        E       E E
|--------------------------------|-------------------------------------|
|--------------------------------|-------------------------------------|
|--------------------------------|-------------------------------------|
|----------2------------2--------|-------------5-----------5-----------|
|----------2------------2--------|-------------5-----------5-----------|
|-0-0-0-0--0---0-0--0-0-0--------|---3-3--3-3--3-----------3---------0-|


   PM--|        PM      PM
   E    E    E  E  E    E    Q
|---------------------------------|
|---------------------------------|
|-----------13----13--------13\---|
|------12------12------12---------|
|-10------------------------------|
|---------------------------------|
|
|---------|        PM-----|
|  S S  S S  E  E  S S  S S  E  E
|---------------------------------|
|---------------------------------|
|---------------------------------|
|------------5---------------5----|
|------------5---------------5----|
|--3-3--3-3--3-----3-3--3-3--3----|


              |-3-|
  S S S S S S S S S  E E E   S S   S S S S S S S S S S E   Q
|---------------5h7s10s8-5\-/5h7h|=8p7p5-----------------------|
|-------------5------------------|-------8p7p5-----------------|
|-----------5--------------------|-------------7p5-7s8s7---5---|
|-------5h7----------------------|-----------------------------|
|-----7--------------------------|-----------------------------|
|-5h8----------------------------|-----------------------------|
|
| Gtr IV
|             |-3-|
| S S S S S S S S S  E E E   S S   S S S S S S S S S S E   Q
|---------------5h7s10s8-5\-/5h7h|=8p7p5-----------------------|
|-------------5------------------|-------8p7p5-----------------|
|-----------5--------------------|-------------7p5-7s8s7---5---|
|-------5h7----------------------|-----------------------------|
|-----7--------------------------|-----------------------------|
|-5h8----------------------------|-----------------------------|
|
| Gtr II
| PM----|                    PM----------|         PM----|
| S S S S E   Q        E E   E     S S S S E   E   S S S S E E
|--------------------------------|-----------------------------|
|--------------------------------|-----------------------------|
|--------------------------------|-----------------------------|
|---------7------------7---------|---------7---------------7---|
|---------7------------7---------|---------7---------------7---|
|-5-5-5-5-5------------5-----0---|-5-5-5-5-5-------5-5-5-5-5---|


                             |---------3----------|
  H.                +Q       Q        +Q         +Q       +Q           +Q
|-------------------------|------------------------------------------------------||
|-8b10--------------(8)---|--8b10r====(8)b10r====(8)b10r==(8)b10-------(8)\------||
|-------------------------|------------------------------------------------------||
|-------------------------|------------------------------------------------------||
|-------------------------|------------------------------------------------------||
|-------------------------|------------------------------------------------------||
|
|                            |---------3----------|
| H.                +Q       Q        +Q         +Q       +Q           +Q
|-------------------------|------------------------------------------------------||
|-------------------------|------------------------------------------------------||
|-7b9---------------(7)---|-[7]b9r====(7)b9r=====(7)b9r===(7)b9--------(7)\------||
|-------------------------|------------------------------------------------------||

|-------------------------|------------------------------------------------------||
|-------------------------|------------------------------------------------------||
|
| PM-------|            PM-------------------|             PM--------|
| S    S S S E Q  E  E  E    S    S S        S E        E  S     S S S  E   E
|-------------------------|------------------------------------------------------||
|-------------------------|------------------------------------------------------||
|-------------------------|------------------------------------------------------||
|------------2----2-------|--------------------2------------------------2--------||
|------------2----2-----2-|--------------------2------------------------2--------||
|-0----0-0-0-0----0-----0-|--0----0-0--------0-0-----------0-----0-0-0--0--------||


 F
  E E E  E  E  E E E    E   E  Q   S S E  S  S S S   E E E  E  E  E E E
|--------------------|-----------------------------|--------------------|
|--------------------|-----------------------------|--------------------|
|-9-7-9S12-12-12S9-7-|--9S=12-12S==4-4-4S=7--7-7-7-|-9-7-9S12-12-12S9-7-|
|--------------------|-----------------------------|--------------------|
|--------------------|-----------------------------|--------------------|
|--------------------|-----------------------------|--------------------|
|
| W                    +H.               +Q          W
|--------------------|-----------------------------|--------------------|
|--------------------|-----------------------------|--------------------|
|-4------------------|-(4)---------------(4)S======|=7------------------|
|--------------------|-----------------------------|--------------------|
|-2------------------|-(2)---------------(2)S======|=5------------------|
|--------------------|-----------------------------|--------------------|
|
|     PM---------------|       PM|     PM      PM        PM-----------|
| Q   E  E  E  E E E    E   E  E E E   E  E    E     Q   E  E  E  E E E
|--------------------|-----------------------------|--------------------|
|--------------------|-----------------------------|--------------------|
|--------------------|-----------------------------|-7------------------|
|-2------------------|------2------2------2--------|-7------------------|
|-2---2--2--2--2-2-2-|--2---2--2-2-2---2--2--------|-5---5--5--5--5-5-5-|
|-0---0--0--0--0-0-0-|--0---0--0-0-0---0--0----0---|-5---5--5--5--5-5-5-|


   E   E  E E   E  +E      +E   +E
|-----------------------------------|
|-----------------------------------|
|--9S=12-12-9-/15-(15)b17-(15)-(15)S|
|-----------------------------------|
|-----------------------------------|
|-----------------------------------|
|
| +H.                      +Q
|-----------------------------------|
|-----------------------------------|
|-(7)----------------------(7)S=====|
|-----------------------------------|
|-(5)----------------------(5)S=====|
|-----------------------------------|
|
|  PM     PM|       PM           PM
|  E   E  E E   E   E       E    E
|-----------------------------------|
|-----------------------------------|
|------7--------7-----------7-------|
|------7--------7-----------7-------|
|--5---5--5-5---5---5-------5----5--|
|--5---5--5-5---5---5-------5----5--|


                                 PM----------------|
  E E E  E  E  E E E   E  E  E E S S  S  S  S  S S S
|--------------------|-------------------------------|
|--------------------|-------------------------------|
|-9-7-9S12-12-12S9-7-|-9S12-12S9-----------------7-7-|
|--------------------|----------------------9--9-----|
|--------------------|-----------7-7-10-10-----------|
|--------------------|-------------------------------|
|
| W                    H.                  +Q
|--------------------|-------------------------------|
|--------------------|-------------------------------|
|-9------------------|-9-------------------(9)S======|
|--------------------|-------------------------------|
|-7------------------|-7-------------------(7)S======|
|--------------------|-------------------------------|
|
|     PM---------------|     PM|      PM
| Q   E  E  E  E E E   E  E  E E E    E     E    E
|--------------------|-------------------------------|
|--------------------|-------------------------------|
|--------------------|-------------------------------|
|-7------------------|----7------7----------7\-------|
|-5---7--7--7--7-7-7-|-7--7--7-7-7----7-----7\---x---|
|-5---5--5--5--5-5-5-|-5--5--5-5-5----5-----5\---x---|


                                                                      |--3--|
  E E E  E  E  E  E  S  S    S   S  S  S  S  S  S  S  S  S  S  S  E   S  S  S
|-------------------------|--------------------------------------12\-----------|
|-------------------------|--------------------------12-14-15-15---------------|
|-9-7-9S12-12-12----------|--------------12-15-15-15-----------------------12h=|
|----------------14-12-12-|-12--15-15-15--------------------------------14-----|
|-------------------------|------------------------------------------14--------|
|-------------------------|----------------------------------------------------|
|
| W                         +E      E     Q           E     E     Q
|-------------------------|----------------------------------------------------|
|-------------------------|----------------------------------------------------|
|-4-----------------------|-(4)-----5-----------------5-----------5------------|
|-------------------------|----------------------------------------------------|
|-2-----------------------|-(2)-----3-----------------3-----------3------------|
|-------------------------|----------------------------------------------------|
|
|     PM--------------------|             PM---|            PM
| Q   E  E  E  E  E  E       E      E     E     E     E     E     Q
|-------------------------|----------------------------------------------------|
|-------------------------|----------------------------------------------------|
|-------------------------|----------------------------------------------------|
|-2-----------------------|----------------------------------------------------|
|-2---2--2--2--2--2--2----|--2------3-----------------3-----------3------------|
|-0---0--0--0--0--0--0----|--0------1-----0-----0-----1-----0-----1------------|


      T                                T
                        |--3--|        |--3--|
   S  S  T  T  T  T  S  T  T  T  S  S  S  S  S  S  S  a  Q
|-------------------------------12h15-17p15p14p13p12-14s20b22====|
|----------------------------12----------------------------------|
|-15-17p15p14p13p12-------12-------------------------------------|
|-------------------15-15----------------------------------------|
|----------------------------------------------------------------|
|----------------------------------------------------------------|
|
|  PM-------------------------------------------------------------
|  E     E           E           E     E        E        E     E
|----------------------------------------------------------------|
|----------------------------------------------------------------|
|----------------------------------------------------------------|
|----------------------------------------------------------------|
|--7-----7-----------7-----------6-----6--------6--------5-----5-|
|----------------------------------------------------------------|
|
|        PM-------------------------------------------------------
|  E     E           E           E     E        E        E     E
|----------------------------------------------------------------|
|----------------------------------------------------------------|
|----------------------------------------------------------------|
|----------------------------------------------------------------|
|--2-----5-----------5-----------6-----6--------6--------7-----7-|
|--0-----3-----------3-----------4-----4--------4--------5-----5-|


         ~~~
                         |--3--|
   S  S  Q.      Q   E   S  S  S
|-20r20----------------------------|
|-------18------17\----------------|
|-----------------------------12h==|
|--------------------------14------|
|-----------------------14---------|
|----------------------------------|
|
|-----------------------|
|  E     E  E E  E E E   E
|----------------------------------|
|----------------------------------|
|----------------------------------|
|----------------------------------|
|--5-----5--5-5--4-4-3---2---------|
|----------------------------------|
|
|-------------|
|  E     E  E E  E E Q
|----------------------------------|
|----------------------------------|
|----------------7s9-7\------------|
|----------------7s9-7\------------|
|--7-----8--8-0--5s7-5\------------|
|--5-----6--6-0--------------------|


      T                                T
                        |--3--|        |--3--|
   S  S  T  T  T  T  S  T  T  T  S  S  S  S  S  S  S  a  Q
|-------------------------------12h15-17p15p14p13p12-14s20b22====|
|----------------------------12----------------------------------|
|-15-17p15p14p13p12-------12-------------------------------------|
|-------------------15-15----------------------------------------|
|----------------------------------------------------------------|
|----------------------------------------------------------------|
|
|  PM-------------------------------------------------------------
|  E     E           E           E     E        E        E     E
|----------------------------------------------------------------|
|----------------------------------------------------------------|
|----------------------------------------------------------------|
|----------------------------------------------------------------|
|--7-----7-----------7-----------6-----6--------6--------5-----5-|
|----------------------------------------------------------------|
|
|        PM-------------------------------------------------------
|  E     E           E           E     E        E        E     E
|----------------------------------------------------------------|
|----------------------------------------------------------------|
|----------------------------------------------------------------|
|----------------------------------------------------------------|
|--2-----5-----------5-----------6-----6--------6--------7-----7-|
|--0-----3-----------3-----------4-----4--------4--------5-----5-|


         ~~~
   S  S  Q.      Q   Q
|-20r20-------------------|
|-------18------17--------|
|-------------------------|
|-------------------------|
|-------------------------|
|-------------------------|
|
|-----------------------|
|  E     E  E E  E E E  E
|-------------------------|
|-------------------------|
|-------------------------|
|-------------------------|
|--5-----5--5-5--4-4-3--2-|
|-------------------------|
|
|-------------|
|  E     E  E E  E E Q
|-------------------------|
|-------------------------|
|----------------7s9-7\---|
|----------------7s9-7\---|
|--7-----8--8-0--5s7-5\---|
|--5-----6--6-0-----------|


  Q.     Q.     Q     +E  Q.     E E Q
|-------------------|---------------------|
|-------------------|---------------------|
|-9------9------9---|-(9)-9------7s9-9\---|
|-------------------|---------------------|
|-------------------|---------------------|
|-------------------|---------------------|
|
| PM---------------------------------------
| E  E E E  E E E E    E  E  E E E E E  E
|-------------------|---------------------|
|-------------------|---------------------|
|-------------------|---------------------|
|-------------------|---------------------|
|-7--7-7-6--6-6-5-5-|--5--5--5-5-4-4-3--2-|
|-------------------|---------------------|
|
| E  E E E  E E E E    E  E  E E E E Q
|-------------------|---------------------|
|-------------------|---------------------|
|-------------------|------------7s9-7\---|
|-------------------|----------0-7s9-7\---|
|-2--5-5-6--6-6-7-7-|--7--8--8-0-5s7-5\---|
|-0--3-3-4--4-4-5-5-|--5--6--6-0----------|


  Q.     Q.     Q     +E  Q.     E E Q
|-------------------|---------------------||
|-------------------|---------------------||
|-9------9------9---|-(9)-9------7s9-9\---||
|-------------------|---------------------||
|-------------------|---------------------||
|-------------------|---------------------||
|
|---------------------------------------|
| E  E E E  E E E E    E  E  E E E E E  E
|-------------------|---------------------||
|-------------------|---------------------||
|-------------------|---------------------||
|-------------------|---------------------||
|-7--7-7-6--6-6-5-5-|--5--5--5-5-4-4-3--2-||
|-------------------|---------------------||
|
| E  E E E  E E E E    E  E  E E E E Q
|-------------------|---------------------||
|-------------------|---------------------||
|-------------------|------------7s9-7\---||
|-------------------|----------0-7s9-7\---||
|-2--5-5-6--6-6-7-7-|--7--8--8-0-5s7-5\---||
|-0--3-3-4--4-4-5-5-|--5--6--6-0----------||


 G
                      ~~~                       ~~~~
   Q        +E   +E   Q.      E    E  E  E  E  +Q.     S  S
|-------------------------------|----------------------------|
|-------------------------------|----------------------------|
|-17b19====(17)r(17)-16------14s|=16s14s19s16-(16)----14h16h=|
|-------------------------------|----------------------------|
|-------------------------------|----------------------------|
|-------------------------------|----------------------------|
|
| Gtr V
|  E     E   Q        E  E E  E    E  E  E  E   E E E  E
|-------------------------------|----------------------------|
|-------------------------------|----------------------------|
|-------------------------------|----------------------------|
|-------------------------------|----------------------------|
|--5-----7---7\-----------------|----------------------------|
|------------------------0----0-|--3p=0--x--x---1p0-x--0-----|


                                          ~~~
   E  E  E   E  S  S  S  S  S  S  S  S    H        Q   S S S S
|--------------13h16-------------------|-----------------------|
|--------------------17h18-15h17-------|-----------------------|
|-17-16-14-----------------------17h19-|-16--------------------|
|-----------18-------------------------|-------------------5h7-|
|--------------------------------------|---------------5-5-----|
|--------------------------------------|----------19\----------|
|
|  E  E  Q      E     E     E     E       E E E E  E E E   E
|--------------------------------------|-----------------------|
|--------------------------------------|-----------------------|
|--------------------------------------|-----------------------|
|--------------------------------------|-----------------------|
|--5--7--7\----------------------------|-----------------------|
|---------------------0-----------0----|--3p0-x-x--1p0-x---0---|


                           |--3--| |--3--|
  S S S S  S  S  S  S S  S S  S  S S  S  S E
|--------------------------------------------|
|--------------------------------------------|
|---------------------9------------9h10h12-9S|
|-9-7-5-------9-10s12---12-9h10h12-----------|
|-------8S12---------------------------------|
|--------------------------------------------|
|
| E   E    Q          E    E       E       E
|--------------------------------------------|
|--------------------------------------------|
|--------------------------------------------|
|--------------------------------------------|
|-5---7----7\--------------------------------|
|--------------------------0---------------0-|


         |--3--|
   S  S  S  S  S  E   S  S  S  S  S  S  S  S  S  S
|--------------------------------------------------|
|--------------------------------------------------|
|-16-14--------------16-17-19-17-16----------------|
|-------17p15p14-15/----------------19S17-15-14-14-|
|--------------------------------------------------|
|--------------------------------------------------|
|
|  E     E        E   E     E     E     E     E
|--------------------------------------------------|
|--------------------------------------------------|
|--------------------------------------------------|
|--------------------------------------------------|
|--------------------------------------------------|
|--3p====0--------x---x-----1p====0-----x-----0----|


   |------5------|
   S  S  S    S  S  S   S  S  S  S  S  S  S  S  S  S  S
|-------------------------------------------------------|
|-------------------------------------------------------|
|-14h15p14h==15p14--------------------------------------|
|------------------17p=15p14h15p14h15-------------------|
|-------------------------------------17p15p14h15p14----|
|----------------------------------------------------17-|
|
| Gtr IV
|  W
|-------------------------------------------------------|
|-------------------------------------------------------|
|-------------------------------------------------------|
|-------------------------------------------------------|
|-------------------------------------------------------|
|-------------------------------------------------------|
|
| Gtr V
|  E       E        Q            E     E     E     E
|-------------------------------------------------------|
|-------------------------------------------------------|
|-------------------------------------------------------|
|-------------------------------------------------------|
|--5-------7--------7\----------------------------------|
|--------------------------------------0-----------0----|


   Q    +Q      Q   E   S  S
|----------------------12h15-|
|----------------------------|
|--------------/9---9\-------|
|----------------------------|
|----------------------------|
|-12---(12)\-----------------|
|
|  H.               E   S  S
|-----------------------7h10-|
|----------------------------|
|----------------------------|
|----------------------------|
|----------------------------|
|----------------------------|
|
|  E E   E   E  E E E   E
|----------------------------|
|----------------------------|
|----------------------------|
|----------------------------|
|----------------------------|
|--3p0---x---x--1p0-x---0----|


   T           T            T           T           T           T
   |------6-------|         |--3--|  |--3--|        |--3--|
   S  S  S  S  S  S  S   S  S  S  S  S  S  S  S  S  S  S  S  S  S
|-17p15p13p12--------------19p15p13p12-------------17p15p13p12----|
|-------------17p15p13p=12-------------19p15p13p12-------------17p|
|-----------------------------------------------------------------|
|-----------------------------------------------------------------|
|-----------------------------------------------------------------|
|-----------------------------------------------------------------|
|
|  T           T            T           T           T           T
|  |------6-------|         |--3--|  |--3--|        |--3--|
|  S  S  S  S  S  S  S   S  S  S  S  S  S  S  S  S  S  S  S  S  S
|-12p10p=8p=7--------------14p10p=8p=7-------------12p10p=8p=7----|
|-------------12p10p=8p==7-------------14p10p=8p=7-------------12p|
|-----------------------------------------------------------------|
|-----------------------------------------------------------------|
|-----------------------------------------------------------------|
|-----------------------------------------------------------------|
|
|  E        E        Q               E        E     E        E
|-----------------------------------------------------------------|
|-----------------------------------------------------------------|
|-----------------------------------------------------------------|
|-----------------------------------------------------------------|
|--5--------7--------7\-------------------------------------------|
|---------------------------------------------0--------------0----|


            T           T           T        T
   |------6-------|        |--3--|  |------6-------|
   S  S  S  S  S  S  S  S  S  S  S  S  S  S  S  S  S  E  S  S
|----------19p15p13p12-------------17p14p12-------------12h15--|
|-15p13p12-------------19p15p13p12----------17p14p12-----------|
|----------------------------------------------------14--------|
|--------------------------------------------------------------|
|--------------------------------------------------------------|
|--------------------------------------------------------------|
|
|           T           T           T        T
|  |------6-------|        |--3--|  |------6-------|
|  S  S  S  S  S  S  S  S  S  S  S  S  S  S  S  S  S  E  S  S
|----------14p10p=8p=7-------------12p=9p=7--------------7h10--|
|-10p=8p=7-------------14p10p=8p=7----------12p=9p=7-----------|
|-----------------------------------------------------9--------|
|--------------------------------------------------------------|
|--------------------------------------------------------------|
|--------------------------------------------------------------|
|
|  E        E        E     E        E        E        E  E
|--------------------------------------------------------------|
|--------------------------------------------------------------|
|--------------------------------------------------------------|
|--------------------------------------------------------------|
|--------------------------------------------------------------|
|--3p=======0--------x-----x--------1p=======0--------x--0-----|


   T           T            T           T           T           T
   |------6-------|         |--3--|  |--3--|        |--3--|
   S  S  S  S  S  S  S   S  S  S  S  S  S  S  S  S  S  S  S  S  S
|-17p15p13p12--------------19p15p13p12-------------20p15p13p12----|
|-------------17p15p13p=12-------------19p15p13p12-------------20p|
|-----------------------------------------------------------------|
|-----------------------------------------------------------------|
|-----------------------------------------------------------------|
|-----------------------------------------------------------------|
|
|  T           T            T           T           T           T
|  |------6-------|         |--3--|  |--3--|        |--3--|
|  S  S  S  S  S  S  S   S  S  S  S  S  S  S  S  S  S  S  S  S  S
|-12p10p=8p=7--------------14p10p=8p=7-------------15p10p=8p=7----|
|-------------12p10p=8p==7-------------14p10p=8p=7-------------15p|
|-----------------------------------------------------------------|
|-----------------------------------------------------------------|
|-----------------------------------------------------------------|
|-----------------------------------------------------------------|
|
|  E        E        Q               E        E     E        E
|-----------------------------------------------------------------|
|-----------------------------------------------------------------|
|-----------------------------------------------------------------|
|-----------------------------------------------------------------|
|--5--------7--------7\-------------------------------------------|
|---------------------------------------------0--------------0----|


            T           T           T        T
   |------6-------|        |--3--|  |------6-------|
   S  S  S  S  S  S  S  S  S  S  S  S  S  S  S  S  S  E  S  S
|----------19p15p13p12-------------17p14p12-------------12h15--|
|-15p13p12-------------19p15p13p12----------17p14p12-----------|
|----------------------------------------------------14--------|
|--------------------------------------------------------------|
|--------------------------------------------------------------|
|--------------------------------------------------------------|
|
|           T           T           T        T
|  |------6-------|        |--3--|  |------6-------|
|  S  S  S  S  S  S  S  S  S  S  S  S  S  S  S  S  S  E  S  S
|----------14p10p=8p=7-------------12p=9p=7--------------7h10--|
|-10p=8p=7-------------14p10p=8p=7----------12p=9p=7-----------|
|-----------------------------------------------------9--------|
|--------------------------------------------------------------|
|--------------------------------------------------------------|
|--------------------------------------------------------------|
|
|  E        E        E     E        E        E        E  E
|--------------------------------------------------------------|
|--------------------------------------------------------------|
|--------------------------------------------------------------|
|--------------------------------------------------------------|
|--------------------------------------------------------------|
|--3p=======0--------x-----x--------1p=======0--------x--0-----|


   T           T            T           T           T           T
   |------6-------|         |--3--|  |--3--|        |--3--|
   S  S  S  S  S  S  S   S  S  S  S  S  S  S  S  S  S  S  S  S  S
|-17p15p13p12--------------19p15p13p12-------------17p15p13p12----|
|-------------17p15p13p=12-------------19p15p13p12-------------17p|
|-----------------------------------------------------------------|
|-----------------------------------------------------------------|
|-----------------------------------------------------------------|
|-----------------------------------------------------------------|
|
|  T           T            T           T           T           T
|  |------6-------|         |--3--|  |--3--|        |--3--|
|  S  S  S  S  S  S  S   S  S  S  S  S  S  S  S  S  S  S  S  S  S
|-12p10p=8p=7--------------14p10p=8p=7-------------12p10p=8p=7----|
|-------------12p10p=8p==7-------------14p10p=8p=7-------------12p|
|-----------------------------------------------------------------|
|-----------------------------------------------------------------|
|-----------------------------------------------------------------|
|-----------------------------------------------------------------|
|
|  E        E        Q               E        E     E        E
|-----------------------------------------------------------------|
|-----------------------------------------------------------------|
|-----------------------------------------------------------------|
|-----------------------------------------------------------------|
|--5--------7--------7\-------------------------------------------|
|---------------------------------------------0--------------0----|


            T           T           T        T
   |------6-------|        |--3--|  |------6-------|
   S  S  S  S  S  S  S  S  S  S  S  S  S  S  S  S  S  E  S  S
|----------19p15p13p12-------------17p14p12-------------12h15--|
|-15p13p12-------------19p15p13p12----------17p14p12-----------|
|----------------------------------------------------14--------|
|--------------------------------------------------------------|
|--------------------------------------------------------------|
|--------------------------------------------------------------|
|
|           T           T           T        T
|  |------6-------|        |--3--|  |------6-------|
|  S  S  S  S  S  S  S  S  S  S  S  S  S  S  S  S  S  E  S  S
|----------14p10p=8p=7-------------12p=9p=7--------------7h10--|
|-10p=8p=7-------------14p10p=8p=7----------12p=9p=7-----------|
|-----------------------------------------------------9--------|
|--------------------------------------------------------------|
|--------------------------------------------------------------|
|--------------------------------------------------------------|
|
|  E        E        E     E        E        E        E  E
|--------------------------------------------------------------|
|--------------------------------------------------------------|
|--------------------------------------------------------------|
|--------------------------------------------------------------|
|--------------------------------------------------------------|
|--3p=======0--------x-----x--------1p=======0--------x--0-----|


   T           T            T           T           T           T
   |------6
            
Submit corrections


        Black Widow Of La Porte lessons Hard to play? Try these video lessons and learn fast Black Widow Of La Porte lessons
        
↑ Back to top | Tablatures and chords for acoustic guitar and electric guitar, ukulele, drums are parodies/interpretations of the original songs. You may use it for private study, scholarship, research or language learning purposes only