Home » J » John 5 »

John 5 - 2 Die 4 Tabs

Artists:  A B C D E F G H I J K L M N O P Q R S T U V W X Y Z # 

2 Die 4 Tabs

(ver. 1) Click to play this song!
John 5
(Intro)
e--------------0--------------0------------|
b---------3------0---0----3-----3----------|
g----4----------------------2-----2--------|
d----2--2---2-----------------------0------|
a------------------------------------------|
E--------------------3---------------------|

e------------------------0----------|
b--------------------0-----0--------|
g---2---0--------------0-----0------|
d---0---0---4-----------------------|
a-----------5-----------------------|
E-----------------0-------------0---|
repeat first part then go to

e---------------------3---2---0-------0----------0--------|
b---------------------------------3----------0-----0------|
g---2---0--------------------------------------0-----0----|
d---0---0---4---2-----2---0-------------------------------|
a-----------5---3-------------3---2-----------------------|
E-------------------------------------0----0------------0-|
            
Submit corrections

↑ Back to top | Tablatures and chords for acoustic guitar and electric guitar, ukulele, drums are parodies/interpretations of the original songs. You may use it for private study, scholarship, research or language learning purposes only