» » »

John 5 - 27 Needles Tabs

Artists:  A B C D E F G H I J K L M N O P Q R S T U V W X Y Z # 

27 Needles Tabs

(ver. 2) Click to play this song!
John 5
 Rating:
4/5 (4 votes)

 27 Needles lessons Tabs too difficult? Try these video lessons and learn fast
 
                
27 NEEDLES
As recorded by John 5
(From the 2007 Album THE DEVIL KNOWS MY NAME)



 Words and Music by John 5

 

A5
x 0 2 2 x x 

E5
0 2 2 x x x 


Gtr I (E A D G B E) - 'Distortion'
Gtr II (E A D G B E) - 'Distortion 2'
Gtr III (E A D G B E) - 'Distortion 3'
Gtr IV (E A D G B E) - 'Clean'
Gtr V (E A D G B E) - 'Distortion w/Delay'

All A.Hs. in section Q and the last 4 measures of S represent feedback


  A
  Free Time Q=120
 4/4
  Gtr I
             <
  W          W          +W           +W
|----------:----------:------------:--------:
|----------:----------:------------:--------:
|----------:----------:------------:--------:
|----------:----------:------------:--------:
|----------:-2--------:-(2)--------:-(2)----:
|----------:-0--------:-(0)--------:-(0)----:


  +W           +W            +W
|------------:-------------:--------||
|------------:-------------:--------||
|------------:-------------:--------||
|------------:-------------:--------||
|-(2)--------:-(2)---------:-(2)----||
|-(0)--------:-(0)---------:-(0)----||
|
| Gtr II
|  W            H     H      +W
|------------:-------------:--------||
|------------:-------------:--------||
|------------:-------------:--------||
|------------:-------------:--------||
|------------:-------------:--------||
|------------:--------0----:-(0)----||


 B
  Fast Q=163
  Gtr III
  E E  Q   E E  Q     E E  Q   E E  Q
|-------------------|-------------------|
|-----<4>------<4>--|-----<4>------<4>--|
|-------------------|-------------------|
|-------------------|-------------------|
|-0--------0--------|-0--------0--------|
|-------------------|-------------------|


  E E  Q   E E  Q     E E  Q   E E  Q
|-------------------|--------------------|
|-----<4>------<4>--|-----<4>------<4>---|
|-------------------|--------------------|
|-------------------|--------------------|
|-0--------0--------|-0--------0---------|
|-------------------|--------------------|


  A5
  Gtr III
  E  Q.                 E  Q.
  |                     |
  /                     /

  Gtr I
  E  S   S   S   S   E  E  S   S   S   S   E
|---------------------------------------------|
|---------------------------------------------|
|---------------------------------------------|
|---------------------------------------------|
|-0-<3>-<3>-<3>-<3>-<3>-0-<3>-<3>-<3>-<3>-<3>-|
|---------------------------------------------|
|
| Gtr II
| E  S   S   S   S   E  E  S   S   S   S   E
|---------------------------------------------|
|---------------------------------------------|
|---------------------------------------------|
|---------------------------------------------|
|-0-<2>-<2>-<2>-<2>-<2>-0-<2>-<2>-<2>-<2>-<2>-|
|---------------------------------------------|


  E  Q.                 E  Q.                   E  Q.                 E  Q.
  |                     |                       |                     |
  /                     /                       /                     /

  E  S   S   S   S   E  E  S   S   S   S   E    E  S   S   S   S   E  E  S   S   S   S   E
|---------------------------------------------|---------------------------------------------|
|---------------------------------------------|---------------------------------------------|
|---------------------------------------------|---------------------------------------------|
|---------------------------------------------|---------------------------------------------|
|-0-<3>-<3>-<3>-<3>-<3>-0-<3>-[2]-[2]-<2>-[1]-|-0-<3>-<3>-<3>-<3>-<3>-0-<3>-<3>-<3>-<3>-<3>-|
|---------------------------------------------|---------------------------------------------|
|
| E  S   S   S   S   E  E  S   S   S   S   E    E  S   S   S   S   E  E  S   S   S   S   E
|---------------------------------------------|---------------------------------------------|
|---------------------------------------------|---------------------------------------------|
|---------------------------------------------|---------------------------------------------|
|---------------------------------------------|---------------------------------------------|
|-0-<2>-<2>-<2>-<2>-<2>-0-[2]-[2]-<3>-<4>-<5>-|-0-<2>-<2>-<2>-<2>-<2>-0-<2>-<2>-<2>-<2>-<2>-|
|---------------------------------------------|---------------------------------------------|


  E  Q.                 E  Q.
  |                     |
  /                     /

  E  S   S   S   S   E  E  S   S   S   S   E
|---------------------------------------------|
|---------------------------------------------|
|---------------------------------------------|
|---------------------------------------------|
|-0-<3>-<3>-<3>-<3>-<3>-0-<3>-[2]-[2]-<2>-[1]-|
|---------------------------------------------|
|
| E  S   S   S   S   E  E  S   S   S   S   E
|---------------------------------------------|
|---------------------------------------------|
|---------------------------------------------|
|---------------------------------------------|
|-0-<2>-<2>-<2>-<2>-<2>-0-[2]-[2]-<3>-<4>-<5>-|
|---------------------------------------------|


  E  Q.                 E  Q.                   E  Q.                 E  Q.
  |                     |                       |                     |
  /                     /                       /                     /

  E  S   S   S   S   E  E  S   S   S   S   E    E  S   S   S   S   E  E  S   S   S   S   E
|---------------------------------------------|---------------------------------------------|
|---------------------------------------------|---------------------------------------------|
|---------------------------------------------|---------------------------------------------|
|---------------------------------------------|---------------------------------------------|
|-0-<3>-<3>-<3>-<3>-<3>-0-<3>-<3>-<3>-<3>-<3>-|-0-<3>-<3>-<3>-<3>-<3>-0-<3>-[2]-[2]-<2>-[1]-|
|---------------------------------------------|---------------------------------------------|
|
| E  S   S   S   S   E  E  S   S   S   S   E    E  S   S   S   S   E  E  S   S   S   S   E
|---------------------------------------------|---------------------------------------------|
|---------------------------------------------|---------------------------------------------|
|---------------------------------------------|---------------------------------------------|
|---------------------------------------------|---------------------------------------------|
|-0-<2>-<2>-<2>-<2>-<2>-0-<2>-<2>-<2>-<2>-<2>-|-0-<2>-<2>-<2>-<2>-<2>-0-[2]-[2]-<3>-<4>-<5>-|
|---------------------------------------------|---------------------------------------------|


  E  Q.                 E  Q.
  |                     |
  /                     /

  E  S   S   S   S   E  E  S   S   S   S   E
|---------------------------------------------|
|---------------------------------------------|
|---------------------------------------------|
|---------------------------------------------|
|-0-<3>-<3>-<3>-<3>-<3>-0-<3>-<3>-<3>-<3>-<3>-|
|---------------------------------------------|
|
| E  S   S   S   S   E  E  S   S   S   S   E
|---------------------------------------------|
|---------------------------------------------|
|---------------------------------------------|
|---------------------------------------------|
|-0-<2>-<2>-<2>-<2>-<2>-0-<2>-<2>-<2>-<2>-<2>-|
|---------------------------------------------|


  E  Q.                      H
  |                          |
  /                          /

  E  S   S   S   S   S   S   H
|----------------------------------||
|----------------------------------||
|----------------------------2-----||
|----------------------------2-----||
|-0-<3>-<3>-<3>-<3>-[2]-<2>--0-----||
|----------------------------------||
|
| E  S   S   S   S   S   S   H
|----------------------------------||
|----------------------------------||
|----------------------------------||
|----------------------------------||
|-0-<2>-[2]-[2]-[2]-<3>-<4>-<5>----||
|----------------------------------||


   C
    Gtrs I, II
        PM---------|     PM---------|       PM-------|     PM     PM
    a E S  S S S S S a E S  S S S S S   a E S  S S S E S S S  S S S  E
||------------------------------------|---------------------------------|
||o-----------------------------------|---------------------------------|
||------------------------------------|---------------------------------|
||------------------------------------|---------------------------------|
||o---------------------------5-5-----|----------------7p5----9p5---10\-|
||--3s5-5--5-8-8-5-5-3s5-5--5-----9-9-|-3s5-5--5-8-8-5-----5------5-----|
|
|   Gtr III
|     E Q.             E Q.               E Q.         E   Q.
||------------------------------------|---------------------------------|
||o-----------------------------------|---------------------------------|
||------------------------------------|---------------------------------|
||------------------------------------|---------------------------------|
||o---0----------------0--------------|---0------------0----------------|
||------------------------------------|---------------------------------|


      PM---------|     PM---------|       PM-------|      PM     PM
  a E S  S S S S S a E S  S S S S S   a E S  S S S E  S S S  S S S E
|-----------------------------------|---------------------------------||
|-----------------------------------|--------------------------------o||
|-----------------------------------|---------------------------------||
|-----------------------------------|---------------------------------||
|---------------------------5-5-----|----------------10p5----9p5---7-o||
|-3s5-5--5-8-8-5-5-3s5-5--5-----9-9-|-3s5-5--5-8-8-5------5------5----||
|
|   E Q.             E Q.               E Q.          E   Q.
|-----------------------------------|---------------------------------||
|-----------------------------------|--------------------------------o||
|-----------------------------------|---------------------------------||
|-----------------------------------|---------------------------------||
|---0----------------0--------------|---0-------------0--------------o||
|-----------------------------------|---------------------------------||


    PM-----|     PM-----|       PM-----|     PM-----|
  E S  S S S E E S  S S S E   E S  S S S E E S  S S S E
|-------------------------5-|-------------------------5-|
|------------5--------------|------------5--------------|
|---5--6-7-8-----5--6-7-8---|---5--6-7-8-----5--6-7-8---|
|-7------------7------------|-7------------7------------|
|---------------------------|---------------------------|
|---------------------------|---------------------------|
|
| E Q.         E Q.           E Q.         E Q.
|---------------------------|---------------------------|
|---------------------------|---------------------------|
|---------------------------|---------------------------|
|---------------------------|---------------------------|
|-0------------0------------|-0------------0------------|
|---------------------------|---------------------------|


                  PM  PM--|   PM-|     PM------------|  ~~~
  a    +S  +E     S S S S S E S  S S E S   S S S S E E  H
|-7b9==(7)r(7)----5-7-5-----5------------|--------------------|
|-----------------------7-7---7--5-------|--------------------|
|----------------------------------7s6-4-|--------------------|
|----------------------------------------|-7-4----------------|
|----------------------------------------|-----7-4------------|
|----------------------------------------|---------5-4-[3]----|
|
|       E      Q.           E Q.           E   E   E E  H
|----------------------------------------|--------------------|
|----------------------------------------|--------------------|
|----------------------------------------|--------------------|
|----------------------------------------|--------------------|
|-------0-------------------0------------|-0------------------|
|----------------------------------------|---------5-4--3-----|


 D
            PM|                    PM|
  a     +E  S S S S +E  a     +E   S S S S +E
|-----------9---0----------------------0-------|
|-8b10==(8)---8---8r(8)-----------10-----------|
|-----------------------9b11==(9)----9---9r(9)-|
|----------------------------------------------|
|----------------------------------------------|
|----------------------------------------------|
|
|        PM-------------------------------------
|        E  E   E    E         E   E   E    E
|----------------------------------------------|
|----------------------------------------------|
|----------------------------------------------|
|--------2--2---2----2---------2---2---2----2--|
|--------0--0---0----0---------0---0---0----0--|
|----------------------------------------------|


               PM    PM    PM    PM
  a    +E  S S S S S S S S S S S S  E
|----------2p0---2p0---2p0---2p0----0--|
|--------------------------------------|
|-4b6==(4)-----4-----4-----4-----4r----|
|--------------------------------------|
|--------------------------------------|
|--------------------------------------|
|
|--------------------------|
|       E  E   E   E   E   E   Q
|--------------------------------------|
|--------------------------------------|
|--------------------------------------|
|-------2--2---2---2---2---2-----------|
|-------0--0---0---0---0---0---3-------|
|--------------------------------------|


           PM----------------|           ~
                                                 |-3-|
  a    +E  S S S S S S S S S S S +S  E   Q   E E S S S E  a       +E    +E
|--------------------------------------|---------------5---------------------|
|----------9-9-----9-9-----7-7-------0-|-------------5---[8]b10==([8])r([8])-|
|-7b9==(7)-----7-7-----7-7-----7r(7)---|-----------6-------------------------|
|--------------------------------------|-7---7-5-7---------------------------|
|--------------------------------------|-------------------------------------|
|--------------------------------------|-------------------------------------|
|
|       PM---------------------------------------------|
|       E  E   E   E   E   E   E     E   E E E E E     E           Q
|--------------------------------------|-------------------------------------|
|--------------------------------------|-------------------------------------|
|--------------------------------------|-------------------------------------|
|-------2--2---2---2---2---2---2-----2-|-2-2-2-2-2-----2---------------------|
|-------0--0---0---0---0---0---0-----0-|-0-0-0-0-0-----0-----------3---------|
|--------------------------------------|-------------------------------------|


                                                              ~
  a  S  S  S S +S   S  E  S S  S S +S  S  E   S S S S +S  S E Q   +Q
|------------0-(0)---------------0-(0)------|-------0-(0)---------------|
|------10----------10-------9----------9----|---8---------8---7---(7)\--|
|-9s11----11----------11-10---10---------10-|-9---9---------9-7---(7)\--|
|-------------------------------------------|---------------------------|
|-------------------------------------------|---------------------------|
|-------------------------------------------|---------------------------|
|
|    PM-----------------------|               PM----------------|
|    E     E    E      E  E    E    Q         E   E    E    E E E  Q
|-------------------------------------------|---------------------------|
|-------------------------------------------|---------------------------|
|-------------------------------------------|---------------------------|
|----7-----7----7------7--7----7------------|-7---7----7----7-7-7-------|
|----5-----5----5------5--5----5----4-------|-5---5----5----5-5-5--4\---|
|-------------------------------------------|---------------------------|


                                    |-3-|   |-3-|   |-3-|
  S S S S +S  S E S S S S +S  S E   S S S E S S S E S S S E Q
|-------0-(0)-----------0-(0)-----|-------0-------0-------0-5\--|
|---5---------5-----4---------4---|-4h5p4---3h4p3---4h5p4-------|
|-6---6---------6-5---5---------5-|-----------------------------|
|---------------------------------|-----------------------------|
|---------------------------------|-----------------------------|
|---------------------------------|-----------------------------|
|
| PM------------------------------------------------------|
| E   E    E    E E   E    E    E   E     E E     E E     E Q
|---------------------------------|-----------------------------|
|---------------------------------|-----------------------------|
|---------------------------------|-----------------------------|
|-2---2----2----2-2---2----2----2-|-2-----2-2-----2-2-----2-----|
|-0---0----0----0-0---0----0----0-|-0-----0-0-----0-0-----0-3---|
|---------------------------------|-----------------------------|


  Gtr I
   a      +E     E    e    E    +Q        e  E
|--------------------12------------------------|
|----------------------------------------------|
|-11b13==(11)-------------12r==(12)-------9----|
|----------------------------------------------|
|----------------------------------------------|
|----------------------------------------------|
|
| Gtr II
|          PM---------------------------|
|          S  S  S S  S S  S S   S  S S S Q
|-------------0----0----0----0------0---0------|
|--------/14----12---10----9-------------------|
|--------------------------------9----8---7\---|
|----------------------------------------------|
|----------------------------------------------|
|----------------------------------------------|
|
| Gtr III
|                PM-------------------|
|          E     E    E    E     E    E   Q
|----------------------------------------------|
|----------------------------------------------|
|----------------------------------------------|
|----------9-----9----9----9-----9----9---8----|
|----------7-----7----7----7-----7----7---6----|
|----------------------------------------------|


  a      +E     E    e   E   +Q        e  E
|-------------------10----------------------|
|-------------------------------------------|
|-9b11===(9)-------------9r==(9)-------7----|
|-------------------------------------------|
|-------------------------------------------|
|-------------------------------------------|
|
|         PM-------------------------|
|         S  S  S S  S S S S  S  S S S Q
|------------0----0----0---0-----0---0------|
|-------/12----10----8---7------------------|
|-----------------------------7----6---5\---|
|-------------------------------------------|
|-------------------------------------------|
|-------------------------------------------|
|
|         E     E    E   E    E    E   Q
|-------------------------------------------|
|-------------------------------------------|
|-------------------------------------------|
|---------9-----9----9---9----9----9--------|
|---------7-----7----7---7----7----7---4\---|
|-------------------------------------------|


    E S S  E S S  E S S  E S S    a      +E  E  e  E    +Q       Q
|------------------------------|---------------17---------------------|
|------------------------------|--------------------------------------|
|---------18-x-x-17-x-x-16-x-x-|-16b18==(16)------16r==(16)-----14\---|
|-/19-x-x-17-x-x-16-x-x-15-x-x-|--------------------------------------|
|------------------------------|--------------------------------------|
|------------------------------|--------------------------------------|
|
|   E S S  E S S  E S S  E S S    a       E  e  E  S S   E  S S +Q
|------------------------------|-------------5--5--x-x---5--x-5-(5)/--|
|-----x-x--7-x-x--6-x-x--5-x-x-|-------------5--5--x-x---5--x-5-(5)/--|
|-----x-x--6-x-x--5-x-x--4-x-x-|--------------------------------------|
|--/7-x-x--5-x-x--4-x-x--3-x-x-|--2s======4---------------------------|
|------------------------------|--------------------------------------|
|------------------------------|--------------------------------------|
|
|   PM-----------------------------------------|
|   E E    E E    E E    E E              E  E  E  E     E  E    Q
|------------------------------|--------------------------------------|
|------------------------------|--------------------------------------|
|------------------------------|--------------------------------------|
|---2-2----2-2----2-2----2-2---|----------2--2--2--2-----x--2---------|
|---0-0----0-0----0-0----0-0---|----------0--0--0--0-----x--0----3----|
|------------------------------|--------------------------------------|


  Gtrs I, II
               PM----------|
                                             |--3--|
   S S S S  E  S S  S S  S S E S S   S S S S E E   E S S S S E E
|-12-0-8h9-------------------------|-----------------------------|
|----------10----------------------|-----------------------------|
|-------------11-9-11-9------------|---------------------7s6-----|
|-----------------------11-9S7-----|-----------------7h9-----7-9-|
|------------------------------9-7-|-----------7h==9-------------|
|----------------------------------|-9s7p5s7-9-------------------|
|
| Gtr III
|  PM----------------------------------------------------|
|  E   E    E  E    E    E   E E     E   E   E   E   E   E   Q
|----------------------------------|-----------------------------|
|----------------------------------|-----------------------------|
|----------------------------------|-----------------------------|
|--2---2----2--2----2----2---2-2---|-2---2---2---2---2---2-------|
|--0---0----0--0----0----0---0-0---|-0---0---0---0---0---0---3---|
|----------------------------------|-----------------------------|


  PM----|                       PM|
        |--3---|  |---3---|
  E S S E E    E  E  E    E  E  S  S
|---------------------------12-14-12---|
|----------------10-12s==14------------|
|-----6-7-9s==11-----------------------|
|-7-9----------------------------------|
|--------------------------------------|
|--------------------------------------|
|
| PM---------------------------|
| E E   E   E     E    E     E  E
|--------------------------------------|
|--------------------------------------|
|--------------------------------------|
|-2-2---2---2-----2----2-----2--2------|
|-0-0---0---0-----0----0-----0--0------|
|--------------------------------------|


   PM------------------------------|
   S  S  S  S  S  S  S  S  S  S  S  S  E E
|-15-12-14-12------------------------------|
|-------------15-12-14-12------------------|
|-------------------------14-12-------14S9-|
|-------------------------------14s16------|
|------------------------------------------|
|------------------------------------------|
|
|  PM---------------------------|
|  E     E     E     E     E     E     Q
|------------------------------------------|
|------------------------------------------|
|------------------------------------------|
|--2-----2-----2-----2-----2-----2---------|
|--0-----0-----0-----0-----0-----0-----3---|
|------------------------------------------|


               PM  PM  PM
                          |--3---|
  a     +E   S S S S S S  E E   +E  E E
|-----------10---8---7-------------------|
|------------------------10-----------5/-|
|-9b10==(9)----9---9---9----9r==(9)-7S5/-|
|----------------------------------------|
|----------------------------------------|
|----------------------------------------|
|
|        PM-------------------|
|        E   E   E   E    E   E     Q
|----------------------------------------|
|----------------------------------------|
|----------------------------------------|
|--------7---7---7---7----7---7----------|
|--------5---5---5---5----5---5-----4----|
|----------------------------------------|


      PM    PM    PM    PM        PM----|     PM|     PM|     PM|
  S S S S S S S S S S S S E  E    a E S S S S S S S S S S S S S S
|-------------------------------|---------3p0-----5p0-----3p0-----|
|-7p0---6p0---5p0---4p0---3s=1/-|-----5-------5-------5-------5---|
|-----8-----7-----6-----5-------|-4s6---6-------6-------6-------6-|
|-------------------------------|---------------------------------|
|-------------------------------|---------------------------------|
|-------------------------------|---------------------------------|
|
| PM------------------|             PM------------------------|
| E   E   E   E   E   E   Q         E E   E   E   E   E   E   E
|-------------------------------|---------------------------------|
|-------------------------------|---------------------------------|
|-------------------------------|---------------------------------|
|-7---7---7---7---7---7---------|---2-2---2---2---2---2---2---2---|
|-5---5---5---5---5---5---4\----|---0-0---0---0---0---0---0---0---|
|-------------------------------|---------------------------------|


      PM|     PM|             PM|   PM|    PM-----|
                                                       |--3--|
  S S S S S S S S E +E  Q     S S E S S E  S S  S S E  S  S  S
|-3p0-----3p0-----3-(3)s4\--|----------------------------------|
|-----5-------5---5-(5)s6\--|-8-9---8-9---------------------10-|
|-------6-------6-6-(6)s7\--|-----9-----9-11-9------9----11----|
|---------------------------|------------------11-9---12-------|
|---------------------------|----------------------------------|
|---------------------------|----------------------------------|
|
| PM----------------|             PM-----------|
| E   E   E   E   E  E  Q     E   E E   E  E    E   Q
|---------------------------|----------------------------------|
|---------------------------|----------------------------------|
|---------------------------|----------------------------------|
|-2---2---2---2---2--2------|-9---9-9---9--9----9---8----------|
|-0---0---0---0---0--0--3---|-7---7-7---7--7----7---6----------|
|---------------------------|----------------------------------|


      |-3--|    |-3-|
   E  S  S S E  S S S E  E      +S    +E.
|-10---------9--------8--------------------|
|----------9--------8----------------------|
|-------10--------9-----[7]b9==([7])r([7])-|
|----11--------10--------------------------|
|------------------------------------------|
|------------------------------------------|
|
|  E  E      E  E     E  E       Q
|------------------------------------------|
|------------------------------------------|
|------------------------------------------|
|--9--9------9--9-----9--9-----------------|
|--7--7------7--7-----7--7-------4\--------|
|------------------------------------------|


  PM-----------------|
  S  S  S  S S  S  S  S  S  S  S  S  S S  S  S
|----------------------------------------------|
|----------------------------------------------|
|-----------------------10-12-11-10------------|
|------------9-10-11-11-------------11-9-11-11-|
|-9-10-11-11-----------------------------------|
|----------------------------------------------|
|
| PM-------------------------------------|
| E     E    E     E     E     E     E    E
|----------------------------------------------|
|----------------------------------------------|
|----------------------------------------------|
|-2-----2----2-----2-----2-----2-----2----2----|
|-0-----0----0-----0-----0-----0-----0----0----|
|----------------------------------------------|


                             |--------6--------|
   S  S  S   S   S  S  S  S  S  S     S  S  S  S  E. S
|---------------10-11-12-12-15h16h===17-17p16p15-17s=0-||
|-10-12-12--12-----------------------------------------||
|------------------------------------------------------||
|------------------------------------------------------||
|------------------------------------------------------||
|------------------------------------------------------||
|
| Gtr II
|                                        |--3--|
|  S  S  E       S  S  S  S  S     S     S  S  S  Q
|---------------------------10----11----12p11p10-12\---||
|-10-11-12\----/10-11-12-12----------------------------||
|------------------------------------------------------||
|------------------------------------------------------||
|------------------------------------------------------||
|------------------------------------------------------||
|
| Gtr III
|  PM----------|
|  E     E       E     E     E           E        Q
|------------------------------------------------------||
|------------------------------------------------------||
|------------------------------------------------------||
|--2-----2-------2-----2-----x-----------2-------------||
|--0-----0-------0-----0-----x-----------0--------3----||
|------------------------------------------------------||


 E
   S  S  S  S  S  S  S  S  S  S  S  S  S  S  S  S
|-17-12-------------17-12-------------17-12-------|
|-------13-12-13-12-------13-12-13-12-------13-12-|
|-------------------------------------------------|
|-------------------------------------------------|
|-------------------------------------------------|
|-------------------------------------------------|
|
|  PM------|                                 PM|
|  S  S  S  S  E     S  S  S  S  S  S  E     S  S
|--------------8-----x--8--x--x--x--x--8----------|
|--------------8-----x--8--x--x--x--x--8----------|
|-------------------------------------------------|
|-------------------------------------------------|
|-------------------------------------------------|
|--0--5--5--5--------------------------------0--5-|
|
|  W
|-------------------------------------------------|
|-------------------------------------------------|
|-------------------------------------------------|
|-------------------------------------------------|
|-------------------------------------------------|
|-------------------------------------------------|


   S  S  S  S  S  S  S  S  a  S  S  S  S  E   E
|-------17-12---------------------------------0-|
|-13-12-------13-12-13-12-12h13p12------------0-|
|----------------------------------14-12-14-----|
|-----------------------------------------------|
|-----------------------------------------------|
|-----------------------------------------------|
|
|  PM------|
|  S  S  S  S  E     S  S     S  S  S  S  S S E
|--------------8-----x--8-----x--x--x--x--------|
|--------------8-----x--8-----x--x--x--x--------|
|-----------------------------------------7p5---|
|---------------------------------------------7-|
|-----------------------------------------------|
|--0--5--5--5-----------------------------------|


   S  S  S  S  S  S  S  S  S  S  S  S  S  S   E
|-17-12-------------17-12-------------17p12--12-|
|-------13-12-13-12-------13-12-13-12-----------|
|-----------------------------------------------|
|-----------------------------------------------|
|-----------------------------------------------|
|-----------------------------------------------|
|
|  PM------|
|  S  S  S  S  E     S  S  S  S  S  S  E      E
|--------------8-----x--8--x--x--x--x--8--------|
|--------------8-----x--8--x--x--x--x--8--------|
|-------------------------------------------/13-|
|-----------------------------------------------|
|-----------------------------------------------|
|--0--5--5--5-----------------------------------|


                                                ~~
   |--3--|              |--3--|  |--3--|
   S  S  S  S  S  S  S  S  S  S  S  S  S  S  S  Q
|-14h15p14p12--------------------------------------|
|-------------15p13p12-----------------------------|
|----------------------14p12s11--------------------|
|-------------------------------14p12p11-----------|
|----------------------------------------14p12s17--|
|--------------------------------------------------|
|
|                                               ~~
|  |--3--|              |--3--|  |--3--|
|  S  S  S  S  S  S  S  S  S  S  S  S  S  S  S  Q
|--------------------------------------------------|
|-12h14h15p14p12-----------------------------------|
|----------------14p12s10p=9-----------------------|
|----------------------------12p10p=9--------------|
|-------------------------------------12p10p=9s12--|
|--------------------------------------------------|
|
| Gtr III
|  W
|--------------------------------------------------|
|--------------------------------------------------|
|--------------------------------------------------|
|--------------------------------------------------|
|--------------------------------------------------|
|--------------------------------------------------|


   Q    E  E  +E   E  E   E
|----------------------------|
|----------------------------|
|-17---16S17-(17)S16S17S=16S=|
|-16---15S16-(16)S15S16S=15--|
|-17---16S17-(17)S16S17S=16--|
|----------------------------|
|
|  Q    E  E  +E   E  Q
|----------------------------|
|----------------------------|
|----------------------------|
|-10----9S10-(10)S=9S10\-----|
|--9----8S=9--(9)S=8S=9\-----|
|-10----9S10-(10)S=9S10\-----|
|
|  PM--------------------|
|  E E  E  E   E   E  E   E
|----------------------------|
|----------------------------|
|----------------------------|
|--7-7--7--7---7---7--7---7--|
|--5-5--5--5---5---5--5---5--|
|----------------------------|


            ~~~~~~~~~~
    Q   E   E    +E    E  E  E
|------------------------------|
|------------------------------|
|--19--18--19---(19)--18-19-19-|
|------------------------------|
|------------------------------|
|------------------------------|
|
|           ~~~~~~~~~~
|   Q   E   E    +E    E  E  E
|------------------------------|
|------------------------------|
|------------------------------|
|-/12--11-<12>-(<12>)-11-12-11-|
|------------------------------|
|------------------------------|
|
|   Q   E   E    +E    E  E  E
|------------------------------|
|------------------------------|
|------------------------------|
|------------------------------|
|---5---4---5----(5)---4--5--4-|
|------------------------------|


   Q   E  E  +E   E  E  E    Q   E  E  +E   Q    E
|-17--16-15-(15)----------|------------------------|
|----------------17-16-15-|-14--13-12-(12)-10------|
|-18--17-16-(16)----------|------------------------|
|----------------18-17-16-|-14--13-12-(12)-11------|
|-------------------------|------------------------|
|-------------------------|------------------------|
|
|  Q   E  E  +E   E  E  E    Q   E  E  +E   Q.
|-------------------------|------------------------|
|-10---9--8--(8)----------|------------------------|
|-----------------9--8--7-|--6---5--4--(4)--2------|
|-11--10--9--(9)----------|------------------------|
|----------------11-10--9-|--7---6--5--(5)--4------|
|-------------------------|------------------------|
|
|  PM------------------------------------------|
|  Q   E  E  +E   E  E  E    Q   E  E  +E   E  Q
|-------------------------|------------------------|
|-------------------------|------------------------|
|-------------------------|------------------------|
|--2---2--2--(2)--2--2--2-|--2---2--2--(2)--2--2---|
|--0---0--0--(0)--0--0--0-|--0---0--0--(0)--0--0---|
|-------------------------|------------------------|


   E S S  E S S  E S S  E  +E     E   S S  E   S S  E   S S  Q
|-12-x-x-13-x-x-14-x-x-15-(15)S|=10---x-x-11---x-x-12---x-x-13\--|
|----x-x----x-x----x-x---------|------x-x------x-x------x-x------|
|-13-x-x-14-x-x-15-x-x-16-(16)S|=11---x-x-12---x-x-13---x-x-14\--|
|------------------------------|---------------------------------|
|------------------------------|---------------------------------|
|------------------------------|---------------------------------|
|
|  E S S  E S S  E S S  E  +E     S S S S  S S S S  S S S S  Q
|------------------------------|---------------------------------|
|--5-x-x--6-x-x--7-x-x--8--(8)S|==3-x-x-x--4-x-x-x--5-x-x-x--6\--|
|----x-x----x-x----x-x---------|----x-x-x----x-x-x----x-x-x------|
|--6-x-x--7-x-x--8-x-x--9--(9)S|==4-x-x-x--5-x-x-x--6-x-x-x--7\--|
|------------------------------|---------------------------------|
|------------------------------|---------------------------------|
|
|                                 PM------------------------|
|  Q      Q      Q      Q         S S S S  S S S S  S S S S  Q
|------------------------------|---------------------------------|
|------------------------------|---------------------------------|
|------------------------------|---------------------------------|
|--9-----10-----11-----12S=====|==7--------8--------9-------10\--|
|--7------8------9-----10S=====|==5-5-5-5--6-6-6-6--7-7-7-7--8\--|
|------------------------------|---------------------------------|


                      |--3--|
    S  S  S  S  S  S  S  S  S  S  S  S  S      +S   +S   E
|-----------------------------12h14-16-19b21==(19)r(19)-16\-|
|--------------------12h14h15-------------------------------|
|--------------11h14----------------------------------------|
|--------11h14----------------------------------------------|
|-/12h14----------------------------------------------------|
|-----------------------------------------------------------|
|
|   PM
|                     |--3--|
|   E     S  S  S  S  S  S  S  S  S  S  S      +S   +S   E
|------------------------------------5h=7b8====(7)r=(7)--5\-|
|------------------------------5h=7-------------------------|
|---------------------4h=6h=7-------------------------------|
|---------------4h=7----------------------------------------|
|---0-----4h=7----------------------------------------------|
|-----------------------------------------------------------|
|
|   PM-------------------------------------------------------
|   E     E     E     E        E     E          E        E
|-----------------------------------------------------------|
|-----------------------------------------------------------|
|-----------------------------------------------------------|
|---2-----2-----2-----2--------2-----2----------2--------2--|
|---0-----0-----0-----0--------0-----0----------0--------0--|
|-----------------------------------------------------------|


                    PM
  |----6----| |-3-|
  S S S S S S S S S E     E Q.      +W
|---------------------------------|--------|
|---------------------------------|--------|
|-4p2p0---------------------------|--------|
|-------4p2p0---------------------|--------|
|-------------4p2p0-------0-------|--------|
|-------------------0-------2b3---|-(2)----|
|
| |----6----| |----6----|
| S S S S S S S S S S S S E Q.      +W
|---------------------------------|--------|
|---------------------------------|--------|
|-4p2p0---------------------------|--------|
|-------4p2p0---------------------|--------|
|-------------4p2p0-------0-------|--------|
|-------------------3h4h5---2b3---|-(2)----|
|
|-------------------------|
| E     E     E     E     E Q.      +W
|---------------------------------|--------|
|---------------------------------|--------|
|---------------------------------|--------|
|-2-----2-----2-----2-----2-5-----|-(5)----|
|-0-----0-----0-----0-----0-3-----|-(3)----|
|---------------------------------|--------|


                F
  Gtrs I, II
                     PM----------|     PM----------|
  +W             a E S S  S  S S S a E S S  S  S S S
|------------||--------------------------------------|
|------------||o-------------------------------------|
|------------||--------------------------------------|
|------------||--------------------------------------|
|------------||o----------------------------5--5-----|
|-(2)--------||--3s5-5-5--8--8-5-5-3s5-5-5-------9-9-|
|
| Gtr III
| +W               E E    Q          E E    Q
|------------||--------------------------------------|
|------------||o---------<4>---------------<4>-------|
|------------||--------------------------------------|
|-(5)--------||--------------------------------------|
|-(3)--------||o---0-----------------0---------------|
|------------||--------------------------------------|


      PM--------|     PM     PM
  a E S S  S  S E S S S  S S S  E
|----------------------------------|
|----------------------------------|
|----------------------------------|
|----------------------------------|
|-----------------7p5----9p5---10\-|
|-3s5-5-5--8--8-5-----5------5-----|
|
|   E E    Q      E   Q.
|----------------------------------|
|---------<4>----------------------|
|----------------------------------|
|----------------------------------|
|---0-------------0----------------|
|----------------------------------|


      PM----------|     PM----------|       PM--------|      PM     PM
  a E S S  S  S S S a E S S  S  S S S   a E S S  S  S E  S S S  S S S E
|-------------------------------------|----------------------------------||
|-------------------------------------|---------------------------------o||
|-------------------------------------|----------------------------------||
|-------------------------------------|----------------------------------||
|----------------------------5--5-----|-----------------10p5----9p5---7-o||
|-3s5-5-5--8--8-5-5-3s5-5-5-------9-9-|-3s5-5-5--8--8-5------5------5----||
|
|   E E    Q          E E    Q            E E    Q       E   Q.
|-------------------------------------|----------------------------------||
|---------<4>---------------<4>-------|---------<4>---------------------o||
|-------------------------------------|----------------------------------||
|-------------------------------------|----------------------------------||
|---0-----------------0---------------|---0--------------0--------------o||
|-------------------------------------|----------------------------------||


    PM-----|     PM-----|       PM-----|     PM-----|
  E S  S S S E E S  S S S E   E S  S S S E E S  S S S E
|-------------------------5-|-------------------------5-|
|------------5--------------|------------5--------------|
|---5--6-7-8-----5--6-7-8---|---5--6-7-8-----5--6-7-8---|
|-7------------7------------|-7------------7------------|
|---------------------------|---------------------------|
|---------------------------|---------------------------|
|
| E Q.         E Q.           E Q.         E Q.
|---------------------------|---------------------------|
|---------------------------|---------------------------|
|---------------------------|---------------------------|
|---------------------------|---------------------------|
|-0------------0------------|-0------------0------------|
|---------------------------|---------------------------|


                  PM  PM--|   PM-|     PM--------|
  a    +S  +E     S S S S S E S  S S E S   S S S S E E Q  Q
|-7b9==(7)r(7)----5-7-5-----5------------|-------------------||
|-----------------------7-7---7--5-------|-------------------||
|----------------------------------7s6-4-|---------6s5s6\----||
|----------------------------------------|-7-4-----7s6s7s=0--||
|----------------------------------------|-----7-4--------0--||
|----------------------------------------|-------------------||
|
|       E      Q.           E Q.           E   E   E E H
|----------------------------------------|-------------------||
|----------------------------------------|-------------------||
|----------------------------------------|-------------------||
|----------------------------------------|-------------------||
|-------0-------------------0------------|-0-------0---0-----||
|----------------------------------------|-----------4-------||


 G
                      ~~~
  a    +Q.     a     +Q.     E +E
|----------------------------------|
|-8b10-(8)-----8b10==(8)-----8r(8)-|
|----------------------------------|
|----------------------------------|
|----------------------------------|
|----------------------------------|
|
|       PM--------------------------
|       E  E E        E  E E E  E
|----------------------------------|
|----------------------------------|
|----------------------------------|
|-------2--2-2--------2--2-2-2--2--|
|-------0--0-0--------0--0-0-0--0--|
|----------------------------------|


  |-3-|     |----6----| |-3--|      |----6-----|
  S S S S S S S S S S S S S  S S S  S S S  S S S
|-------5h7h8p7p5--------------8h9h10p9p8---------|
|-5h7h8-----------8p7p5-8h9h10------------10p9p8--|
|-------------------------------------------------|
|-------------------------------------------------|
|-------------------------------------------------|
|-------------------------------------------------|
|
|------------------------------|
| E     E   E     E     E      E    Q
|-------------------------------------------------|
|-------------------------------------------------|
|-------------------------------------------------|
|-2-----2---2-----2-----2------2------------------|
|-0-----0---0-----0-----0------0----3-------------|
|-------------------------------------------------|


   |--3--|        |------6-------|  |--3--|
   S  S  S  S  S  S  S  S  S  S  S  S  S  S  S  S  S  S  E
|----------10h11h12p11p10-------------------12h14h15p14p12-|
|-10h11h12----------------12p11p10-12h14h15----------------|
|----------------------------------------------------------|
|----------------------------------------------------------|
|----------------------------------------------------------|
|----------------------------------------------------------|
|
|  PM-------------------------------------------------------
|  E        E     E        E        E        E     E     E
|----------------------------------------------------------|
|----------------------------------------------------------|
|----------------------------------------------------------|
|--2--------2-----2--------2--------2--------2-----2-----2-|
|--0--------0-----0--------0--------0--------0-----0-----0-|
|----------------------------------------------------------|


   a     +Q     a     +Q     a     +Q     a     +E   +E
|-15b17-(15)---15b17-(15)---15b17-(15)---15b17-(15)-(15)\-|
|---------------------------------------------------------|
|---------------------------------------------------------|
|---------------------------------------------------------|
|---------------------------------------------------------|
|---------------------------------------------------------|
|
|--------------------------------------|
|         E  E         E  E         E  E         Q
|---------------------------------------------------------|
|---------------------------------------------------------|
|---------------------------------------------------------|
|---------2--2---------2--2---------2--2------------------|
|---------0--0---------0--0---------0--0---------3--------|
|---------------------------------------------------------|


   a      +S   +S   E  S S  S S E S S S S E
|-12b13==(12)r(12)-10-----------------------|
|---------------------12-9------------------|
|--------------------------11S8-7-----------|
|---------------------------------9-7-------|
|-------------------------------------9s7-5S|
|-------------------------------------------|
|
|          PM---------------------|
|          E        E  E    E   E E   Q
|-------------------------------------------|
|-------------------------------------------|
|-------------------------------------------|
|----------7--------7--7----7---7-7---------|
|----------5--------5--5----5---5-5---4-----|
|-------------------------------------------|


              |-3-| |-3--|
  S S S S S S S S S S  S S S  S  Q
|------------------------0h8h10s17\--|
|-----------------0h8h10-------------|
|-----------0h7h9--------------------|
|-----0h7h9--------------------------|
|-7h9--------------------------------|
|------------------------------------|
|
| PM-----------------------|
| E   E   E   E     E      E     Q
|------------------------------------|
|------------------------------------|
|------------------------------------|
|-7---7---7---7-----7------7---------|
|-5---5---5---5-----5------5-----4\--|
|------------------------------------|


        |-3-|             |-3-|
  E E E S S S S S S S S S S S S
|---------5h7h8p7p5-------------|
|-------5-----------8p7p5-------|
|-------------------------8p7p5-|
|-----8-------------------------|
|---7---------------------------|
|-5-----------------------------|
|
| PM-----------------------------
| E E E E     E   E   E   E
|-------------------------------|
|-------------------------------|
|-------------------------------|
|-2-2-2-2-----2---2---2---2-----|
|-0-0-0-0-----0---0---0---0-----|
|-------------------------------|


  a    +E  S S a   +E  E  a      +E    S  S  a      +E    S  T T
|----------------------------------------------------------------|
|--------------------------------------------------------------8-|
|-7b9==(7)r7p5-7b9-(7)---[7]b9==([7])r[7]p5-[7]b9==([7])r[7]-9---|
|----------------------------------------------------------------|
|----------------------------------------------------------------|
|----------------------------------------------------------------|
|
|----------------------|               PM
|       E  E        E  E          E    E             Q
|----------------------------------------------------------------|
|----------------------------------------------------------------|
|----------------------------------------------------------------|
|-------2--2--------2--2---------------2-------------------------|
|-------0--0--------0--0---------------0-------------3-----------|
|----------------------------------------------------------------|


  |-3--|                         |-3-|
  E  E E S S S S S S E E S T T   E E E S S S S S S E a E  E
|-7h10p7-----------------------|-5h8p5----------------------|
|--------8p7-----------------6-|-------6p5------------------|
|------------9p7-------9---7---|-----------7p5-------5s7S=x-|
|----------------9s7p5---------|---------------7p5s3------x-|
|------------------------------|----------------------------|
|------------------------------|----------------------------|
|
| H.                   Q         H.                    Q
|------------------------------|----------------------------|
|------------------------------|----------------------------|
|------------------------------|----------------------------|
|-9--------------------9S======|=7---------------------7\---|
|-7--------------------7S======|=5---------------------5\---|
|------------------------------|----------------------------|


   Q  Q  Q  E a  S  S
|---------------------|
|------------------10-|
|-------------9s11----|
|-/7--6--5--4---------|
|---------------------|
|---------------------|
|
|  Q  Q  Q  Q
|---------------------|
|---------------------|
|---------------------|
|---------------------|
|---------------------|
|--5--4--3--2---------|


   |--------6---------|  |---3---|        |---3---|
   S  S    S  S  S    S  S  S    S  S  S  S  S    S  S  S  S  S  S  S
|----------------------------------------------------------------------||
|-12h13p==12p10s12h==13-15p13p==12s13h15-17p15p==13s15h17-19p17-15-15--||
|----------------------------------------------------------------------||
|----------------------------------------------------------------------||
|----------------------------------------------------------------------||
|----------------------------------------------------------------------||
|
|  PM--------------------------------------------------------------|
|  S    S     S    S     S    S     S  S  S    S     S  S  S  S  S  S
|----------------------------------------------------------------------||
|----------------------------------------------------------------------||
|----------------------------------------------------------------------||
|----------------------------------------------------------------------||
|----------------------------------------------------------------------||
|--5----5-----5----5-----4----4-----4--4--3----3-----3--3--2--2--2--2--||


 H
    ~~~~~~~~                                         ~~~~~~~~
    H     Q   +Q        W                            H     Q   +Q
|--------18--(18)\--|----------------------------|-------------------|
|-/22---------------|----------------------------|-------------------|
|-------------------|----------------------------|-/14----15--(15)\--|
|-------------------|----------------------------|-------------------|
|-------------------|----------------------------|-------------------|
|-------------------|----------------------------|-------------------|
|
|   H     Q   +Q        W                            H     Q   +Q
|-------------------|----------------------------|-------------------|
|-------------------|----------------------------|-------------------|
|-------------------|----------------------------|-------------------|
|-------------------|----------------------------|-------------------|
|-------------------|----------------------------|-------------------|
|---5-----6---(6)\--|----------------------------|---5-----6---(6)\--|
|
| Gtr V
|                       |-3--|  |-3-|  |-3-|
|   W                   E  E E  E E E  E E E E E     W
|-------------------|-/12------------------------|-------------------|
|-------------------|-----10---11----------------|-------------------|
|-------------------|--------9----9---10---------|-------------------|
|-------------------|---------------8----8-------|-------------------|
|-------------------|----------------------7-6---|-------------------|
|-------------------|----------------------------|-------------------|


   W
|---------------------------------|
|---------------------------------|
|---------------------------------|
|---------------------------------|
|---------------------------------|
|---------------------------------|
|
|  W
|---------------------------------|
|---------------------------------|
|---------------------------------|
|---------------------------------|
|---------------------------------|
|---------------------------------|
|
|  |-3--|  |-3--|  |-3--|
|  E  E E  E  E E  E  E E  a  E E
|-12------13------12------15s17---|
|----10------10------10-----------|
|-------9-------9-------9---------|
|---------------------------------|
|---------------------------------|
|---------------------------------|


    ~~~~~~~~
    H     Q   +Q        W
|--------18--(18)\--|-----------------------------|
|-/22---------------|-----------------------------|
|-------------------|-----------------------------|
|-------------------|-----------------------------|
|-------------------|-----------------------------|
|-------------------|-----------------------------|
|
|   H     Q   +Q        W
|-------------------|-----------------------------|
|-------------------|-----------------------------|
|-------------------|-----------------------------|
|-------------------|-----------------------------|
|-------------------|-----------------------------|
|---5-----6---(6)\--|-----------------------------|
|
|                       |-3--|  |-3-|  |-3-|
|   W                   E  E E  E E E  E E E E E
|-------------------|-/12-------------------------|
|-------------------|-----10---11-----------------|
|-------------------|--------9----9---10----------|
|-------------------|---------------8----8--------|
|-------------------|----------------------7-6----|
|-------------------|-----------------------------|


    ~~~~~~~~
    H     Q   +Q
|-------------------|
|-------------------|
|-/14----15--(15)S==|
|-------------------|
|-------------------|
|-------------------|
|
|   H     Q   +Q
|-------------------|
|-------------------|
|-------------------|
|-------------------|
|-------------------|
|---5-----6---(6)\--|


   |--------7--------|  |--------7--------|  |-------7--------|  |-------7-------|
   S  S  S  S  S  S  S  S  S  S  S  S  S  S  S  S  S  S  S  S S  S  S  S  S  S S S
|------------------------------------------------------------------------------------||
|------------------------------------------------------------------------------------||
|-13h14p13h14p13p12s11-12h13p12h13p12p11s10-11h12p11h12p11p10s9-10-11-10-11-10-9s8\--||
|------------------------------------------------------------------------------------||
|------------------------------------------------------------------------------------||
|------------------------------------------------------------------------------------||
|
|  W
|------------------------------------------------------------------------------------||
|------------------------------------------------------------------------------------||
|------------------------------------------------------------------------------------||
|------------------------------------------------------------------------------------||
|------------------------------------------------------------------------------------||
|------------------------------------------------------------------------------------||


 I
  PM--------------------------------------------
  S S  S  S  S  S  S  S S  S  S  S  S  S  S  S
|----------------------------------------------|
|----------------------------12-12-13-13-12-12-|
|-9-9-11-11-12-12-11-11-9--9-------------------|
|----------------------------------------------|
|----------------------------------------------|
|----------------------------------------------|
|
| PM--|            PM
| E    E     E     E    Q.                E
|----------------------------------------------|
|----------------------------------------------|
|----------------------------------------------|
|----------------------------------------------|
|-----------------------7\---------------------|
|-0----0-----------0----------------------0----|


 --------------------------------------------|
  S S  S  S  S  S  S  S  S  S  S  S  S  S  S  S
|-----------------------------------------------|
|-----------------------10----------------------|
|-9-9-11-11-12-12-11-11----12-11-11-12-12-11-11-|
|-----------------------------------------------|
|-----------------------------------------------|
|-----------------------------------------------|
|
|      PM---------------------|
| E    E     E     E     E     E     Q
|-----------------------------------------------|
|-----------------------------------------------|
|-----------------------------------------------|
|-----------------------------------------------|
|-----------------------------------------------|
|------0-----0-----0-----0-----0-----1----------|


  PM--------------------------------------------
  S S  S  S  S  S  S  S S  S  S  S  S  S  S  S
|----------------------------------------------|
|----------------------------12-12-13-13-12-12-|
|-9-9-11-11-12-12-11-11-9--9-------------------|
|----------------------------------------------|
|----------------------------------------------|
|----------------------------------------------|
|
| PM--|            PM
| E    E     E     E    Q.                E
|----------------------------------------------|
|----------------------------------------------|
|----------------------------------------------|
|----------------------------------------------|
|-----------------------7\---------------------|
|-0----0-----------0----------------------0----|


 --------------------------------------------|
  S S  S  S  S  S  S  S  S  S  S  S  S  S  S  S
|-----------------------------------------10-10-|
|-----------------------------------10-10-------|
|-9-9-11-11-12-12-11-11-------10-10-------------|
|-----------------------12-12-------------------|
|-----------------------------------------------|
|-----------------------------------------------|
|
|      PM          PM
| E    E     E     E     Q           Q
|-----------------------------------------------|
|-----------------------------------------------|
|-----------------------------------------------|
|-----------------------------------------------|
|-----------------------------------------------|
|------0-----------0-----1----------------------|


  PM--------------------------------------------
  S S  S  S  S  S  S  S S  S  S  S  S  S  S  S
|----------------------------------------------|
|----------------------------12-12-13-13-12-12-|
|-9-9-11-11-12-12-11-11-9--9-------------------|
|----------------------------------------------|
|----------------------------------------------|
|----------------------------------------------|
|
| PM--|            PM
| E    E     E     E    Q.                E
|----------------------------------------------|
|----------------------------------------------|
|----------------------------------------------|
|----------------------------------------------|
|-----------------------7\---------------------|
|-0----0-----------0----------------------0----|


 --------------------------------------------|
  S S  S  S  S  S  S  S  S  S  S  S  S  S  S  S
|-----------------------------------------------|
|-----------------------10----------------------|
|-9-9-11-11-12-12-11-11----12-11-11-12-12-11-11-|
|-----------------------------------------------|
|-----------------------------------------------|
|-----------------------------------------------|
|
|      PM---------------------|
| E    E     E     E     E     E     Q
|-----------------------------------------------|
|-----------------------------------------------|
|-----------------------------------------------|
|-----------------------------------------------|
|-----------------------------------------------|
|------0-----0-----0-----0-----0-----1----------|


   PM-------------------------------------------|
   S  S  S  S  S  S  S  S  S   S  S  S  S  S  S  S
|-12-10-------10----------10------------------------|
|-------13-12----13-12-12-----13-12-12-10-----------|
|-----------------------------------------12-11-11/-|
|---------------------------------------------------|
|---------------------------------------------------|
|---------------------------------------------------|
|
| Gtr II
|  PM-------------------------------------------|
|  S  S  S  S  S  S  S  S  S   S  S  S  S  S  S  S
|-12-10-------10----------10------------------------|
|-------13-12----13-12-12-----13-12-12-10-----------|
|-----------------------------------------12-11-11--|
|---------------------------------------------------|
|---------------------------------------------------|
|---------------------------------------------------|
|
| Gtr III
|  PM---|            PM
|  E     E     E     E     Q.                 E
|---------------------------------------------------|
|---------------------------------------------------|
|---------------------------------------------------|
|---------------------------------------------------|
|--------------------------7\-----------------------|
|--0-----0-----------0------------------------0-----|


                           ~~~
   S  S  S  S  S  S  S  S  Q    +Q
|-----------------------------------------||
|-15-13-12-12-----------------------------||
|-------------14-14-12-12-14---(14)\------||
|-----------------------------------------||
|-----------------------------------------||
|-----------------------------------------||
|
|                          ~~~
|  S  S  S  S  E     E     Q.        +E
|-----------------------------------------||
|-10--------------------------------------||
|----12-11-11--9-----------9---------(9)\-||
|-------------------12--------------------||
|-----------------------------------------||
|-----------------------------------------||
|
|        PM          PM
|  E     E     E     E     Q     Q
|-----------------------------------------||
|-----------------------------------------||
|-----------------------------------------||
|-----------------------------------------||
|-----------------------------------------||
|--------0-----------0-----1--------------||


 J
  Gtr II
  E E E E E E E E   E E E E E E E E   E E E E E E E E   E E E E E E E E
|-----------------|-----------------|-----------------|------------------|
|-----------------|-----------------|-----------------|------------------|
|-9-9-9-9-9-9-9-9S|=8-8-8-8-8-8-8-8S|=7-7-7-7-7-7-7-7S|=6-6-6-6-6-6-6-6S=|
|-----------------|-----------------|-----------------|------------------|
|-7-7-7-7-7-7-7-7S|=6-6-6-6-6-6-6-6S|=5-5-5-5-5-5-5-5S|=4-4-4-4-4-4-4-4S=|
|-----------------|-----------------|-----------------|------------------|
|
| Gtr III
| PM------------------------------------------------------------------|
| E E E E E E E E   E E E E E E E E   E E E E E E E E   E E E E E E E E
|-----------------|-----------------|-----------------|------------------|
|-----------------|-----------------|-----------------|------------------|
|-----------------|-----------------|-----------------|------------------|
|-----------------|-----------------|-----------------|------------------|
|-----------------|-6-6-6-6-6-6-6-6-|-5-5-5-5-5-5-5-5-|-4-4-4-4-4-4-4-4--|
|-0-0-0-0-0-0-0-0-|-----------------|-----------------|------------------|


  E E E E E E E E   E E E E E E E E   E E E E E E E E    E  E  E  E  E  E  Q
|-----------------|-----------------|-----------------|------------------------|
|-----------------|-----------------|-----------------|------------------------|
|-9-9-9-9-9-9-9-9S|=8-8-8-8-8-8-8-8S|=7-7-7-7-7-7-7-7S|=14-14-14-14-14-14-14S==|
|-----------------|-----------------|-----------------|------------------------|
|-7-7-7-7-7-7-7-7S|=6-6-6-6-6-6-6-6S|=5-5-5-5-5-5-5-5S|=12-12-12-12-12-12-12S==|
|-----------------|-----------------|-----------------|------------------------|
|
| PM-------------------------------------------------------------------------|
| E E E E E E E E   E E E E E E E E   E E E E E E E E    E  E  E  E  E  E  E E
|-----------------|-----------------|-----------------|--------------------
            
Submit corrections


        27 Needles lessons Hard to play? Try these video lessons and learn fast 27 Needles lessons
        
↑ Back to top | Tablatures and chords for acoustic guitar and electric guitar, ukulele, drums are parodies/interpretations of the original songs. You may use it for private study, scholarship, research or language learning purposes only