Home » J » Johann Pachelbel »

Johann Pachelbel - Canon In D Tabs

Artists:  A B C D E F G H I J K L M N O P Q R S T U V W X Y Z # 

Canon In D Tabs

(ver. 1) Click to play this song!
Johann Pachelbel

[Solo]
e|10--2-3-5--2-3-5-----------2-3-2-----2-------------------------------------------------|
B|---------------------2-3-5-------3-5--------0-------3-2-3-0--3-2-0-----------------2-3-|
G|-----------------2-4--------------------0-2---2-0-2----------------2-0-2-0---0-2-4-----|
D|0--------------------------------------4-------------------------------0---4-----------|
A|---------------0---------------2-------------------------------------------------------|
E|------------------------------------------2---------------3----------------------------|

e|----------------0---0-2-3-5--2-3-5--2-3-5-----------2-3-2-----2--------------|
B|0-3-2-3-2-0-2-3---3---------------------------2-3-5-------3-5--------0-------|
G|------------------------------------------2-4--------------------0-2---2-0-2-|
D|----------------------------------------------------------------4------------|
A|------------0---------------------------0---------------2--------------------|
E|3------------------------------------------------------------------2---------|

e|-------------------------------------------------------0-2-3--5-|
B|-------0---------------------0---0---0---0---0---0-2-3--------2-|
G|-0-2-0---2-0---------------2---2---0---2---2---2--------------2-|
D|4------------4-2-4-2-0-2-4------------------------------------2-|
A|-----------------0-----------------------------0--------------0-|
E|-----3-----------------------------3----------------------------|            
Submit corrections

↑ Back to top | Tablatures and chords for acoustic guitar and electric guitar, ukulele, drums are parodies/interpretations of the original songs. You may use it for private study, scholarship, research or language learning purposes only