Home » J » Johann Pachelbel »

Johann Pachelbel - Canon In D Major Bass

Artists:  A B C D E F G H I J K L M N O P Q R S T U V W X Y Z # 

Canon In D Major Bass

(ver. 1) Click to play this song!
Johann Pachelbel
The fun parts of Pachelbel's Canon in D Major

Drop D tuning



    h h h h h h h h
G|--------------------|
D|--0-----------------|
A|----0-2---------0---|
D|--------4-5-0-5-----|

    q q h   q q h   q q h
G|----2---------------------|
D|--0---------4-------0-----|
A|------0---2---------------|
D|--------------4---5---0---|

    q q q q                           >repeat
G|------------|
D|----0-2-----|
A|--------0---|
D|--5---------|

    q q q q q q q q q q q q q q q q
G|----2-------------------------------|
D|--0-----2---4-------0-------0-2-----|
A|------0---2-----4-------0-------0---|
D|--------------4---5---0---5---------|
    e  s  s  e  s  s  e  s  s  s  s  s  s  e  s  s  s  e  s s  s  e
G|--14-------14-------14-------------------12-11--------------------|
D|-----14-16----14-16-------------12-14-16-------12-14-16---------9-|
A|-----------------------12-14-16-------------------------9-10-12---|
D|------------------------------------------------------------------|
   s  s  s  s  s s  s  e  s s e  s s s s s s s s s s e  s  s  e
G|---------------------------------------------------------------|
D|------------------------9-7------------------5-7-9-------------|
A|-12-10-12-10-9-10-12-10-----10-9-7-9-7-5-7-9-------10-14-12-14-|
D|---------------------------------------------------------------|
    s  s  s  s  s  s  s  s  s  s
G|-----------------------11-12-14-|
D|--11-12-14-12-11-12-14----------|
A|--------------------------------|
D|--------------------------------|
            
Submit corrections

↑ Back to top | Tablatures and chords for acoustic guitar and electric guitar, ukulele, drums are parodies/interpretations of the original songs. You may use it for private study, scholarship, research or language learning purposes only