Home » J » Joe Satriani »

Joe Satriani - Goodbye Supernova Tabs

Artists:  A B C D E F G H I J K L M N O P Q R S T U V W X Y Z # 

Goodbye Supernova Tabs

(ver. 1) Click to play this song!
Joe Satriani

[Intro]
eb|-9----------5----------2----------------|
Bb|-7----------5----------0----------------|
Gb|-9----------7----------4----------------|
Db|----------------------------------------|(x4)
Ab|----------------------------------------|
Eb|----------------------------------------|

0:47:20
[Bridge]
eb|-------------------------------------------|
Bb|-------------------------------------------|
Gb|-------------------------------------------|
Db|------7-9----7-----------------------------|(x2)
Ab|-7-9-------9---7--9-7------------------9-9-|
Eb|-----------------------10-7------7-----7-7-|

0:59:32
[Verse 1]
eb|---------------------------------------------------------------|
Bb|---------------------------------------------------------------|
Gb|-(11)r9p7--9b11--9b11~~--(11)r9p7--9b11----9b11--9b11~~~~~~~~/-|
Db|---------------------------------------------------------------|
Ab|---------------------------------------------------------------|
Eb|---------------------------------------------------------------|
1:10:28
eb|---------------------------------------------------------------------------|
Bb|---------------------------------------------------------------------------|
Gb|-(11)r9p7--9b11r9b11----9b11--(11)r9--7--9b11------9b11--9b11--9b11~~~~~~\-|
Db|---------------------------------------------------------------------------|
Ab|---------------------------------------------------------------------------|
Eb|---------------------------------------------------------------------------|
1:21:25
eb|-----------------------------------------------|---------------------------------------------|
Bb|-----------------------------------------------|---------------------------------------------|
Gb|-----6--7~~--9--9~~--9--9/12~~~~~~--11br~~~~~~-|-4\2/4/7~~~~~~~~~~----4\2/4/9~~~~~~~~--------|
Db|---7-------------------------------------------|---------------------------------------9p7-9-|
Ab|-7---------------------------------------------|---------------------------------------------|
Eb|-----------------------------------------------|---------------------------------------------|

[Bridge]
eb|------------------------------------------|
Bb|------------------------------------------|
Gb|------------------------------------------|
Db|-----7-9---7------------------------------|(x2)
Ab|-7-9-----9---7-9-7---------------9-9------|
Eb|--------------------10-7---------7-7------|

1:52:28
[Verse 2]
eb|--------------------------------------------------------------------------------17-----------------|
Bb|-(19)r17p15--17b19r17b19---17b19-17-15----15-17-15-17b19--17b19--17b19--17b19------17b19~~~~r17p15-|
Gb|---------------------------------------16----------------------------------------------------------|
Db|---------------------------------------------------------------------------------------------------|
Ab|---------------------------------------------------------------------------------------------------|
Eb|---------------------------------------------------------------------------------------------------|
2:05:06
eb|-10b12--10~~~7----10-7----8b9~~~~7h9p7----7----------------------|
Bb|---------------7-------7---------------10---7-10-7---7-----------|
Gb|---------------------------------------------------9---9/11~~~~\-|
Db|-----------------------------------------------------------------|
Ab|-----------------------------------------------------------------|
Eb|-----------------------------------------------------------------|
2:14:11
eb|----------------------------------------------------------|-----------------------------------------------|
Bb|-------14-15~~14--17~~15--17b20~~~~~~~~17b19~~~~~~~r17p15-|-12\10/12/15~~~~~~17b19-------12\10/12/15~~~~\-|
Gb|----14----------------------------------------------------|-----------------------------------------------|
Db|-14-------------------------------------------------------|-----------------------------------------------|
Ab|----------------------------------------------------------|-----------------------------------------------|
Eb|----------------------------------------------------------|-----------------------------------------------|

2:35:26
[Chorus]
eb|-21--------17---------12/14------------|------------------------------------------------------------------|
Bb|---------------------------------------|-3/5--5/7--7/10--10/12--12~~h15----12h15p12\10\7/10h12~~~~~~~~p10-|
Gb|-18--------14---------9/11-------------|------------------------------------------------------------------|
Db|---------------------------------------|------------------------------------------------------------------|
Ab|---------------------------------------|------------------------------------------------------------------|
Eb|---------------------------------------|------------------------------------------------------------------|

eb|-21--------17---------12/14------------|
Bb|---------------------------------------|
Gb|-18--------14---------9/11-------------|
Db|---------------------------------------|
Ab|---------------------------------------|
Eb|---------------------------------------|
3:07:42
eb|------------------------------------------------------17---------------------------------------|
Bb|-5h7p5\3/5/7/10~~~h12--10h12p10/12/15h17~~p15--17b19-----17b19--17b19-17b19~~~~17-15-15~~~~~~\-|
Gb|-----------------------------------------------------------------------------------------------|
Db|-----------------------------------------------------------------------------------------------|
Ab|-----------------------------------------------------------------------------------------------|
Eb|-----------------------------------------------------------------------------------------------|

3:19:48
[Solo]
eb|--------------------------------------------10/14\10--------------------------------------|
Bb|-3p2h3/5/7/10/14~~~~\10----------10/15~~~~-----------10/14\10\7\5\3/5~~--5\3\2/3~~~~~~bar-|
Gb|------------------------------------------------------------------------------------------|
Db|------------------------------------------------------------------------------------------|
Ab|------------------------------------------------------------------------------------------|
Eb|------------------------------------------------------------------------------------------|
3:41:18
eb|-------------------------------------------9br-------------------------------------------------|
Bb|-3/5/7/10/14~~~~\10----7/12~~~~~~~~~~~\---------10--------------------------------12~~~~~~~~~\-|
Gb|---------------------------------------------------11p9p7p6------------------------------------|
Db|-----------------------------------------------------------------------------------------------|
Ab|------------------------------------------------------------9p7p5p4--5h7h9---------------------|
Eb|-----------------------------------------------------------------------------------------------|
4:03:00
eb|-------------------7h9~~7-----7~~~-------7/10~~~p12----12b14r12b14r12p10~~12-|
Bb|-------------7-10---------10------10--10-------------------------------------|
Gb|---------6-7-----------------------------------------------------------------|
Db|-----4-7---------------------------------------------------------------------|
Ab|-4-5-------------------------------------------------------------------------|
Eb|-----------------------------------------------------------------------------|
4:13:30
eb|-9b10r9---------------------------------------------------------------|
Bb|---------10-----------------------------------------------------------|
Gb|-------------9/11\9/11~~~/14--11h14p11\9/11\9\7~~~-6h7p6\4\2/4~~~~~~\-|
Db|----------------------------------------------------------------------|
Ab|----------------------------------------------------------------------|
Eb|----------------------------------------------------------------------|
4:22:64
eb|--------------------------7-9-12-7-9-12-7---------------------------------|
Bb|---------------------7-10-----------------7-10---7------------------------|
Gb|-------------4-6-7-9---------------------------9---7-9---7----------------|
Db|-------4-5-7-------------------------------------------9---7-9---7--------|
Ab|-4h5h7---------------------------------------------------------9---7-9~~7-|
Eb|--------------------------------------------------------------------------|
4:29:73
eb|---7--9--12--7-9----7-9-10-7-9--(10)r9b10r9-7----7----------------------------10-12--14--12--14-|
Bb|-7---------------10---------------------------10---10/12\10/12~~p10--10h12h14-------------------|
Gb|------------------------------------------------------------------------------------------------|
Db|------------------------------------------------------------------------------------------------|
Ab|------------------------------------------------------------------------------------------------|
Eb|------------------------------------------------------------------------------------------------|

eb|-17~~~~~~--17-14--17-14-17-14-17-14-17b19~~r17-14----------------------------------------------|
Bb|--------------------------------------------------(19)r17p15~~~~h17--15b17-r15--15b17-15b17r15-|
Gb|-----------------------------------------------------------------------------------------------|
Db|-----------------------------------------------------------------------------------------------|
Ab|-----------------------------------------------------------------------------------------------|
Eb|-----------------------------------------------------------------------------------------------|
4:46:34
eb|---------------------------------------------15-------------------------19b21-19b21~~--17----17~~~19-|
Bb|-14~~~------------15----15~~17b19------17b19----17b19-17-15----15~~~~\--------------------19---------|
Gb|-------14~~~~--16----16-------------------------------------16---------------------------------------|
Db|-----------------------------------------------------------------------------------------------------|
Ab|-----------------------------------------------------------------------------------------------------|
Eb|-----------------------------------------------------------------------------------------------------|
4:59:06
eb|-22b24--22--21~-19--17--14--h17p14\12\10-12-10h12p10\9-------------------------------|
Bb|-------------------------------------------------------------------------------------|
Gb|-------------------------------------------------------11p9\7-7h9p7\6-7---6----------|
Db|------------------------------------------------------------------------9---7/9~~~~\-|
Ab|-------------------------------------------------------------------------------------|
Eb|-------------------------------------------------------------------------------------|
5:01:45
eb|---------------------------------------------------------------------------|
Bb|---------------------------------------------------------------------------|
Gb|------------------------------------------------------7-/9\7/9-h11\7~~~~~~-|
Db|-4h7p4p0h4/7/11~~/12----7h9p7p0h4/7/9\7/9~~/12----7/9----------------------|
Ab|---------------------------------------------------------------------------|
Eb|---------------------------------------------------------------------------|
5:17:20
eb|-------------------------------14-17~~~~~~-|
Bb|-------------------------14-15-------------|
Gb|------------------11-14--------------------|
Db|------------11-12--------------------------|
Ab|------9-12---------------------------------|
Eb|-9-10--------------------------------------|
5:21:14
eb|-14----14----------------------------------------------------------------------------------------------|
Bb|----17----17-15-14-----15-14----14---------------------------------------------------------------------|
Gb|-------------------16--------16----16-14----14----14---------------------------------------------------|
Db|-----------------------------------------16----16----16-14-16-14-12\11\9h11p9h11-7h9p7h9-4\2-0----\bar-|
Ab|-------------------------------------------------------------------------------------------------------|
Eb|-------------------------------------------------------------------------------------------------------|            
Submit corrections

↑ Back to top | Tablatures and chords for acoustic guitar and electric guitar, ukulele, drums are parodies/interpretations of the original songs. You may use it for private study, scholarship, research or language learning purposes only