Home » J » Joe Purdy »

Joe Purdy - Wash Away Tabs

Artists:  A B C D E F G H I J K L M N O P Q R S T U V W X Y Z # 

Wash Away Tabs

(ver. 3) Click to play this song!
Joe Purdy
 Rating:
4.2/5 (5 votes)
                When i wanted to play this song in the begging i wanted to learn the

ukuele part, but there was no tabs for that, so i tabbed the ukuele
as a guitar

-Standard Tuning

- Fingerpicking

-Capo on the 5th

e|-------3--------------3---------|
B|---0-------0--0--0-------0---0--|
G|--------------------------------|
D|-0---0-------0--0--0-------0----|
A|--------------------------------|
E|--------------------------------|

e|-------3--------------3---------|
B|---1-------1--1--1-------1---1--|
G|--------------------------------|
D|-2---2-------2--2--2-------2----|
A|--------------------------------|
E|--------------------------------|

e|-------5-------5-------5-------5-|
B|---3-------3-------3-------3-----|
G|---------------------------------|
D|-4---4-------4-------4-------4---|
A|---------------------------------|
E|---------------------------------|

e|-------3--------------3---------|
B|---1-------1--1--1-------1---1--|
G|--------------------------------|
D|-2---2-------2--2--2-------2----|
A|--------------------------------|
E|--------------------------------|

that was pretty much it! my first tab, there may be some variations, but this is the main that
continues in the song, but note that it's very important to feel how the
rythm goes. 
            
Submit corrections

↑ Back to top | Tablatures and chords for acoustic guitar and electric guitar, ukulele, drums are parodies/interpretations of the original songs. You may use it for private study, scholarship, research or language learning purposes only