Home » J » Joe Cocker »

Joe Cocker - You Can Leave Your Hat On Bass

Artists:  A B C D E F G H I J K L M N O P Q R S T U V W X Y Z # 

You Can Leave Your Hat On Bass

(ver. 1) Click to play this song!
Joe Cocker
 Intro
  Q=92
 4/4
  Gtr I
  H    Q  E E   Q  E E +E  E E E   Q  E E +E  E E E   Q  E E +E  E E E
|-------------|------------------|------------------|-------------------|
|-------------|-1----1-(1)-------|-1----1-(1)-------|-1----1-(1)--------|
|---------1-3-|----3-------3-1-3-|----3-------3-1-3-|----3-------3-1-3--|
|-------------|------------------|------------------|-------------------|


  S S E +H     Q    Q  E E E E E E   +Q   E E E E E E
|-----------------|----------------|-------------------|
|-----------------|----2-1-2-------|------2-1-2--------|
|-----1-(1)-------|-3------------3-|-(3)------------3--|
|-1h3-------------|----------3-5---|------------3-5----|


                                        1st Verse
  +Q   E E E E E E   +Q   E E E E E E    +Q   E E E E E E
|------------------|------------------||------------------|
|------2-1-2-------|------2-1-2-------||------2-1-2-------|
|-(3)------------3-|-(3)------------3-||-(3)------------3-|
|------------3-5---|------------3-5---||------------3-5---|


  +Q   E E E E E E   +Q   E E E E E E   +Q   E E E E E E
|------------------|------------------|------------------|
|------2-1-2-------|------2-1-2-------|------5-4-5-------|
|-(3)------------3-|-(3)------------3-|-(3)------------3-|
|------------3-5---|------------3-5---|------------3-5---|


  +Q   E E E E E E   +Q   E E E E E E   +Q   E E E E E E
|------------------|------------------|------------------|
|------2-1-2-------|------2-1-2-------|------2-1-2-------|
|-(3)------------3-|-(3)------------3-|-(3)------------3-|
|------------3-5---|------------3-5---|------------3-5---|


  +Q     E  E  E E E E   +Q   E E E E E E   +Q   E E E E E E
|----------------------|------------------|------------------|
|-------14S13S14-------|------2-1-2-------|------2-1-2-------|
|-(3)/---------------3-|-(3)------------3-|-(3)------------3-|
|----------------3-5---|------------3-5---|------------3-5---|


                                        Chorus
  +Q   E E E E E E   +Q   E E E E E E    +H     +Q.   E
|------------------|------------------||----------------|
|------2-1-2-------|------5-4-5-------||----------------|
|-(3)------------3-|-(3)------------3-||-(3)----(3)---3-|
|------------3-5---|------------3-5---||----------------|


  H.      +E  E   W          E E Q  H      Q  E E E E E E
|---------------|----------|-------------|----------------|
|---------------|----------|-------------|----2-1-2-------|
|---------------|----------|-------------|-3------------3-|
|-0-------(0)-0-|-1--------|-3-3---------|----------3-5---|


                    2nd Verse
  +Q.   E E E E E    +Q   E E E E E E   +Q   E E E E E E
|-------4-5-------||------------------|------------------|
|-----------------||------2-1-2-------|------2-1-2-------|
|-(3)-----------3-||-(3)------------3-|-(3)------------3-|
|-----------3-5---||------------3-5---|------------3-5---|


  +Q   E E E E E E   +Q.   E E E E E   +Q   E E E E E E
|------------------|-----------------|------------------|
|------2-1-2-------|-----------------|------2-1-2-------|
|-(3)------------3-|-(3)---6s7-----3-|-(3)------------3-|
|------------3-5---|-----------3-5---|------------3-5---|


  +Q   E E E E E E   +Q   E E E E E E   +Q     E  E  E E E E
|------------------|------------------|----------------------|
|------2-1-2-------|------2-1-2-------|-------14S13S14-------|
|-(3)------------3-|-(3)------------3-|-(3)/---------------3-|
|------------3-5---|------------3-5---|----------------3-5---|


  +Q.   E E E E E   +Q   E E E E E E   +Q   E E E E E E
|-----------------|------------------|------------------|
|-----------------|------2-1-2-------|------2-1-2-------|
|-(3)---6s7-----3-|-(3)------------3-|-(3)------------3-|
|-----------3-5---|------------3-5---|------------3-5---|


                    Chorus
  +Q.   E E E E E    +H     +Q.   E   H.      +E  E   W
|-----------------||----------------|---------------|------|
|-----------------||----------------|---------------|------|
|-(3)---4S5-----3-||-(3)----(3)---3-|---------------|------|
|-----------3-5---||----------------|-0-------(0)-0-|-1----|


  E E Q  H      Q  E E E E E E   +Q   E E E E E E
|-------------|----------------|------------------||
|-------------|----2-1-2-------|------2-1-2-------||
|-------------|-3----------0-3-|-(3)----------0-1-||
|-3-3---------|----------3-----|------------3-----||


 Bridge
  +H      E E E E   +Q   E. S E E E E   +Q   E E E E E E
|-----------------|-------------------|------------------|
|-----------------|-------------------|------2-1-2-------|
|-(1)----/5-3-1---|-----------0-----3-|-(3)----------0-3-|
|---------------1-|-(1)-----1---3-1---|------------3-----|


  +Q   E E E E E E   +H      E E E E   +Q   Q  E E E E
|------------------|-----------------|-----------------|
|------2-1-2-------|-----------------|-----------------|
|-(3)----------0-1-|-(1)----/5-3-1---|---------0-----3-|
|------------3-----|---------------1-|-(1)-------3-1---|


  +Q   E E E E E E   +Q   E E E E E E   +H     E E E E
|------------------|------------------|----------------|
|------2-1-2-------|------2-1-2-------|----------------|
|-(3)------------3-|-(3)----------0-1-|-(1)----5-3-1---|
|------------3-5---|------------3-----|--------------1-|


                      Sax Solo
  +Q   E. S E E E E    +Q   E E E E E E   +Q   E E E E E E
|-------------------||------------------|------------------|
|-------------------||------2-1-2-------|------2-1-2-------|
|-----------0-----3-||-(3)----------0-3-|-(3)----------0-1-|
|-(1)-----1---3-1---||------------3-----|------------3-----|


  +H      E E E E   +Q   E. S E E E E   +E  E E E E E E E
|-----------------|-------------------|-------------------|
|-----------------|-------------------|-------2-1-2-------|
|-(1)----/5-3-1---|-----------0-----3-|-(3)-----------0-3-|
|---------------1-|-(1)-----1---3-1---|-------------3-----|


                        3rd Verse
  +Q    E  E  E E E E    +Q   E E E E E E   +Q   E E E E E E
|---------------------||------------------|------------------|
|------14S13S14-------||------2-1-2-------|------2-1-2-------|
|-(3)---------------3-||-(3)------------3-|-(3)------------3-|
|---------------3-5---||------------3-5---|------------3-5---|


  +Q   E E E E E E   +Q.   E E E E E   +Q   E E E E E E
|------------------|-----------------|------------------|
|------2-1-2-------|-------4-5-------|------2-1-2-------|
|-(3)------------3-|-(3)-----------3-|-(3)----------0-3-|
|------------3-5---|-----------3-5---|------------3-----|


  +Q   E E E E E E   +Q   E E E E E E   +Q   E E E E E E
|------------------|------------------|------------------|
|------2-1-2-------|------2-1-2-------|------2-1-2-------|
|-(3)----------0-3-|-(3)----------0-3-|-(3)----------0-3-|
|------------3-----|------------3-----|------------3-----|


  Q   Q  Q  E E   Q  E E +E  E E E   H    Q  E E   Q  E E +E  E E E
|---------------|------------------|-------------|------------------|
|---------------|-1----1-(1)-------|-------------|-1----1-(1)-------|
|-3\--------1-3-|----3-------3-1-3-|---------1-3-|----3-------3-1-3-|
|---------------|------------------|-------------|------------------|


  H    Q  E E   Q  E E +E  E E E   E E Q  H      Q  E E E E E E
|-------------|------------------|-------------|----------------|
|-------------|-1----1-(1)-------|-5-----------|----2-1-2-------|
|---------1-3-|----3-------3-1-3-|-------------|-3----------0-3-|
|-------------|------------------|-------------|----------3-----|


                     Outro
  +Q   E E E E E E    +H     E E E E   +Q   E. S E E E E
|------------------||----------------|-------------------|
|------2-1-2-------||----------------|-------------------|
|-(3)--------------||--------5-3-1---|-----------0-----3-|
|------------3-5-6-||-(6)----------1-|-(1)-----1---3-1---|


  +Q   E E E E E E   +Q   E E E E E E   +H     E E E E
|------------------|------------------|----------------|
|------2-1-2-------|------2-1-2-------|----------------|
|-(3)------------3-|-(3)--------------|--------5-3-1---|
|------------3-5---|------------3-5-6-|-(6)----------1-|


  +Q.   E E E E E   +Q   E E E E E E   +Q   E E E E E E
|-----------------|------------------|------------------|
|-----------------|------2-1-2-------|------2-1-2-------|
|---------3-1---3-|-(3)----------0-3-|-(3)--------------|
|-(1)---------1---|------------3-----|------------3-5-6-|


  +H     E E E E   +Q   E. S E E E E   +E  E E E E E E E
|----------------|-------------------|-------------------|
|----------------|-------------------|-------2-1-2-------|
|--------5-3-1---|-----------0-----3-|-(3)-----------0-3-|
|-(6)----------1-|-(1)-----1---3-1---|-------------3-----|


  +Q   E E E E E E   +Q.   E E E E E   +H     E E E E
|------------------|-----------------|----------------|
|------2-1-2-------|-----------------|----------------|
|-(3)--------------|---------5-3-1---|--------3-1---3-|
|------------3-5-6-|-(6)-----------1-|-(1)--------1---|


  +E  E E E E E E E   +Q   E E E E E E
|-------------------|------3-2-3-------*|
|-------2-1-2-------|------------------*|
|-(3)-----------0-3-|-(3)----------0-3-*|
|-------------3-----|------------3-----*|            
Submit corrections

↑ Back to top | Tablatures and chords for acoustic guitar and electric guitar, ukulele, drums are parodies/interpretations of the original songs. You may use it for private study, scholarship, research or language learning purposes only