Home » J » Joe Bonamassa »

Joe Bonamassa - Jockey Full Of Bourbon Tabs

Artists:  A B C D E F G H I J K L M N O P Q R S T U V W X Y Z # 

Jockey Full Of Bourbon Tabs

(ver. 2) Click to play this song!
Joe Bonamassa
e|----1-------------------------|------1-------------------------------------|
B|----1-------------1-----------|------1-------------------------------------|
G|----1-------------1-----------|------1-------------------------------------|
D|------------1--3-----3p1------|---------------1----------------------------| repeat
A|-3-----1h3----------------3---|---3------1h3----3-2-1-------3--------------|
E|-1----------------------------|---1--------------------4\3--1--------------|


SOLO - he does the lick before the solo but holds 
the Bb note and doesn't finish the lick

e|--8-------------------------8-8--------------------------------------------|
B|--9-----------8-9----8-9-11-----11-9-8h9-8---------------------------------|
G|--10-----8-10-----10-------------------------------------------------------|
D|---------------------------------------------------------------------------|
A|---------------------------------------------------------------------------|
E|---------------------------------------------------------------------------|

e|------------------------8--------------------------8-----------------------|
B|--8-9-11----9-8--8-9-11---11-9-8-----8h9----8h9-11---11-9-9p8--------------|
G|---------10-----------------------10-----10-------------------10-----------|
D|---------------------------------------------------------------------------|
A|---------------------------------------------------------------------------|
E|---------------------------------------------------------------------------|

This part is a bit of a sweep

e|----------13-15-16---15-13-15-16-15---13-15-16-15-13----13-13--------------|
B|-------13--------------------------------------------16-------16-13~-------|
G|----13---------------------------------------------------------------------|
D|-15------------------------------------------------------------------------|
A|---------------------------------------------------------------------------|
E|---------------------------------------------------------------------------|

Slide up to INFINITY muahaha
e|---------------------------------------------------------------------------|
B|-13~--13~/--13~--13~/----13-13-11-9-8-9p8----------------------------------|
G|------------------------------------------10\3-----------------------------|
D|---------------------------------------------------------------------------|
A|-----------------------------------------------3---------------------------|
E|---------------------------------------------------------------------------|            
Submit corrections

↑ Back to top | Tablatures and chords for acoustic guitar and electric guitar, ukulele, drums are parodies/interpretations of the original songs. You may use it for private study, scholarship, research or language learning purposes only