» » »

Joe Bonamassa - Jelly Roll Tabs

Artists:  A B C D E F G H I J K L M N O P Q R S T U V W X Y Z # 

Jelly Roll Tabs

(ver. 2) Click to play this song!
Joe Bonamassa
 Rating:
4/5 (4 votes)
                (Intro)
-------------------------------------------------------------------------------
                             JELLY ROLL - JOE BONAMASSA
-------------------------------------------------------------------------------

Tuning:Standard Capo at third fret

This is a tribute to the late great John Martyn and a really cool track to
learn.

Play the A chord with the first finger over all the strings to make it easier.
I thing Joe plays this finger style but you can use a pick.

There is a bit of palm muting going on here I think.

e|-----------------------------------------------------------------|
B|-----------------------------------------------------------------|
G|-2-0h2p0-----0-------0-2-0h2p0-----0-------0-2-0h2p0-----0-------| 
D|-2-------4p0---4p0---0-2-------4p0---4p0---0-2-------4p0---4p0---|
A|-0-----------------0---------------------0---------------------0-|
E|-----------------------------------------------------------------|

e|-----------------------------------|
B|-----------------------------------|
G|-2-0h2p0-----0-------------2-2-0-2-|
D|-2-------4p0---4p0-0h2p0---2-2-0-2-|
A|-0-----------------------3-0-0-0-0-|
E|-----------------------------------|

e|-0-0-0-3-0-0-3-0-0-3-0-0-----------------------------------0-0-0-0-0-0-|
B|-3-3-3-3-3-3-3-3-3-3-3-3-----------------------------------0-0-0-3-3-3-|
G|-2-2-2-2-2-2-2-2-2-2-2-2-2-0h2p0-----0-------------2-2-0-2-1-1-1-1-1-1-|
D|-0-0-0-0-0-0-0-0-0-0-0-0-2-------4p0---4p0-0h2p0---2-2-0-2-0-0-0-0-0-0-|
A|-------------------------0-----------------------3-0-0-0-0-2-2-2-2-2-2-|
E|-----------------------------------------------------------0-0-0-0-0-0-|

e|-0-0-0-3-3-3-----------------------------------|
B|-3-3-3-3-3-3-----------------------------------|
G|-2-2-2-2-2-2-2-0h2p0-----0-------------2-2-0-2-|
D|-0-0-0-0-0-0-2-------4p0---4p0-0h2p0---2-2-0-2-|
A|-------------0-----------------------3-0-0-0-0-|
E|-----------------------------------------------|

This is basically the intro to the song and if this is okay then you can get
the rest of it from this.  Please feel free to use and improve this tab.

Hope you enjoy it.


************************************

| /   slide up
| \   slide down
| h   hammer-on
| p   pull-off
| ~   vibrato
| +   harmonic
| x   Mute note
| b   Bend
| pb  Pre-bend
| br  Bend release
| pbr Pre-bend release
| brb Bend release bend

************************************
            
Submit corrections

↑ Back to top | Tablatures and chords for acoustic guitar and electric guitar, ukulele, drums are parodies/interpretations of the original songs. You may use it for private study, scholarship, research or language learning purposes only