» » »

Joan Jett - I Love Rock N Roll Bass

Artists:  A B C D E F G H I J K L M N O P Q R S T U V W X Y Z # 

I Love Rock N Roll Bass

(ver. 1) Click to play this song!
Joan Jett
 Rating:
4.3/5 (18 votes)
                [Intro]
G|-----------------|------------------|------------------|------------------|
D|-----------------|------------------|------------------|------------------|
A|-----------------|-7-7-----7-7-10---|-------------10---|-7-7-----7-7-10---|
E|-----------------|------------------|-5-5-----7-7------|------------------|

G|------------------|------------------|------------------|
D|------------------|------------------|------------------|
A|-------------10---|---7-7------------|-7-7------5-2-----|
E|-5-5-----7-7------|-7----------------|--------------5-3-|

[Verse]
G|-----------------|------------------|-----------------|-----------------|
D|-----------------|------------------|-----------------|-----------------|
A|-----------------|-7-7------5-2-----|-----------------|---------5-2-----|
E|-0-0-------------|--------------5-3-|-0-0-------------|-7-7---------5-3-|

G|-----------------|------------------|-----------------|-----------------|
D|-----------------|------------------|-----------------|-----------------|
A|-----------------|-7-7--------------|-----------------|-----------------|
E|-5-5-----7-7-----|---------5--------|-----------------|-----------------|

G|-----------------|-----------------|
D|-----------------|-----------------|
A|-----------------|-----------------|
E|-----------------|-7-7-7-7-7-7-7-7-|

[Chorus]
G|------------------|-----------------|------------------|-----------------|
D|------------------|-----------------|------------------|-----------------|
A|-7-7-----7-7-10---|-----------------|-7-7-----7-7-10---|-------------7-7-|
E|------------------|-5-5-----7-7-----|------------------|-5-5-----7-------|

G|------------------|-----------------|------------------|
D|------------------|-----------------|------------------|
A|------------------|-------------7-7-|--------5-2-------|
E|------------------|-----------------|------------5-3---|

[Verse]
G|-----------------|------------------|-----------------|-----------------|
D|-----------------|------------------|-----------------|-----------------|
A|-----------------|-7-7------5-2-----|-----------------|---------5-2-----|
E|-0-0-------------|--------------5-3-|-0-0-------------|-7-7---------5-3-|

G|-----------------|------------------|-----------------|-----------------|
D|-----------------|------------------|-----------------|-----------------|
A|-----------------|-7-7--------------|-----------------|-----------------|
E|-5-5-----7-7-----|---------5--------|-----------------|-----------------|

G|-----------------|-----------------|
D|-----------------|-----------------|
A|-----------------|-----------------|
E|-----------------|-7-7-7-7-7-7-7-7-|

[Chorus]
G|------------------|-----------------|------------------|-----------------|
D|------------------|-----------------|------------------|-----------------|
A|-7-7-----7-7-10---|-----------------|-7-7-----7-7-10---|-------------7-7-|
E|------------------|-5-5-----7-7-----|------------------|-5-5-----7-------|

G|------------------|-----------------|------------------|
D|------------------|-----------------|------------------|
A|------------------|-------------7-7-|--------5-2-------|
E|------------------|-----------------|------------5-3---|

[Solo/Bridge]
G|-----------------|------------------|------------------|------------------|
D|-----------------|------------------|------------------|------------------|
A|-----------------|--------------7-7-|--------5-2-------|------------------|
E|-0-0-------------|------------------|------------5-3---|-0-0--------------|

G|-----------------|------------------|------------------|------------------|
D|-----------------|------------------|------------------|------------------|
A|-----------------|--------5-2-------|------------------|-7-7------5-------|
E|-------------7-7-|------------5-3---|-5-5-----7-7------|------------------|

[Chorus] 
G|------------------|-----------------|------------------|-----------------|
D|------------------|-----------------|------------------|-----------------|
A|-7-7-----7-7-10---|-----------------|-7-7-----7-7-10---|-------------7-7-|
E|------------------|-5-5-----7-7-----|------------------|-5-5-----7-------|

G|-----------------|------------------|-----------------|-----------------|
D|-----------------|------------------|-----------------|-----------------|
A|----7-7-10-------|--------------7-7-|----7-7-10-------|--------7-7------|
E|-------------5-5-|----7-7-----------|-------------5-5-|----7------------|

G|-----------------|------------------|-----------------|--------------------|
D|-----------------|------------------|-----------------|--------------------|
A|-7-7-10----------|------------7-7---|----7-7-10-------|-----7-7-----7-7-10-|
E|------------5-5--|----7-7-----------|-------------5-5-|-7------------------|

G|-----------------|-------------------|------------------|------------------|
D|-----------------|-------------------|------------------|------------------|
A|-----------------|----7-7-----7-7-10-|------------------|------------------|
E|----5-5-----7-7--|-------------------|----5-5-----7-----|-0----------------|            
Submit corrections

↑ Back to top | Tablatures and chords for acoustic guitar and electric guitar, ukulele, drums are parodies/interpretations of the original songs. You may use it for private study, scholarship, research or language learning purposes only