Home » J » Jimmy Cliff »

Jimmy Cliff - You Can Get It If You Really Want Tabs

Artists:  A B C D E F G H I J K L M N O P Q R S T U V W X Y Z # 

You Can Get It If You Really Want Tabs

(ver. 1) Click to play this song!
Jimmy Cliff
 Rating:
2.9/5 (22 votes)
                 Intro
  Q=128
            B   C                 B    C                   B
 4/4
  Gtr I (El. Gtr.)
  H    Q  E E   H..                E    H..                E
|-------------|----------------------|------------------------|
|-----------4s|=5------------------4s|==5------------------4s=|
|-----------4s|=5------------------4s|==5------------------4s=|
|-----------4s|=5------------------4s|==5------------------4s=|
|-------------|----------------------|------------------------|
|-------------|----------------------|------------------------|
|
| Gtr II (Trumpet arr. for Gtr.)
| W             Q     E  E  Q   E  E    E    E E  E E  E Q
|-------------|----------------------|------------------------|
|-------------|------17-17-17--15-15-|-15--------15---17------|
|-------------|----------------------|------17----------------|
|-------------|----------------------|------------------------|
|-------------|----------------------|------------------------|
|-------------|----------------------|------------------------|


                                          Chorus
                                       $
  C                   B   C                F
                                                  PM------|
  H..                 E    E E Q  H        E Q  E e s s e e
|-----------------------|--------------||--1-1--1------------|
|-5-------------------4s|==5-----------||o-1-1--1------------|
|-5-------------------4s|==5-----------||--2-2--2------------|
|-5-------------------4s|==5-----------||--3-3--3-3-3-3-3-5--|
|-----------------------|--------------||o-------------------|
|-----------------------|--------------||--------------------|
|
| Q     E  E  E  E  Q      E E Q  H        W
|------15-15-15---------|-15-----------||--------------------|
|---------------17-18---|--------------||o-------------------|
|-----------------------|--------------||--------------------|
|-----------------------|--------------||--------------------|
|-----------------------|--------------||o-------------------|
|-----------------------|--------------||--------------------|


  C               F                  C
                         PM------|
  E Q  E E Q  E   E Q  E e s s e e   E Q  E E Q  E
|---------------|-1-1--1-----------|----------------|
|-5-5--5-5-5--5-|-1-1--1-----------|-5-5--5-5-5--5--|
|-5-5--5-5-5--5-|-2-2--2-----------|-5-5--5-5-5--5--|
|-5-5--5-5-5--5-|-3-3--3-3-3-3-3-5-|-5-5--5-5-5--5--|
|---------------|------------------|----------------|
|---------------|------------------|----------------|


  F                  C                 G
         PM------|        PM------------------------------|
  E Q  E e s s e e   E Q  S S E Q  E   E E +S  S S S E Q  E
|-1-1--1-----------|-----------------|----------------------|
|-1-1--1-----------|-5-5-------------|----------------------|
|-2-2--2-----------|-5-5-------------|----------------------|
|-3-3--3-3-3-3-3-5-|-5-5-------------|----------------------|
|------------------|------3-3-3-3----|---------2-----2-2--x-|
|------------------|---------------5-|-3-3-(3)---3-3--------|


                                       Interlude
                                       1.,2.
                           To Coda
  F                      G              C
  PM---------------------|
  E E +S  S S S E Q  E   E E Q  H       E Q     E  E Q     E
|----------------------|-------------||----------------------|
|----------------------|-------------||-5-5-----5--5-5-----5-|
|----------------------|-------------||-5-5-----5--5-5-----5-|
|-3-3-(3)-3-3-3-3-3--4-|-5-----------||-5-5-----5--5-5-----5-|
|----------------------|-------------||----------------------|
|----------------------|-------------||----------------------|
|
| Gtr II
| W                      W              Q    E  E  Q    E  E
|----------------------|-------------||----------------------|
|----------------------|-------------||-----17-17-17---15-15-|
|----------------------|-------------||----------------------|
|----------------------|-------------||----------------------|
|----------------------|-------------||----------------------|
|----------------------|-------------||----------------------|


  F                       C                          F
                                  PM-------------|
   E  Q    E   E  Q   E   E Q     S S  E Q     S S    E  Q    E   E  Q   E
|--1--1----1---1--1---1-|--------------------------|--1--1----1---1--1---1-||
|--1--1----1---1--1---1-|-5-5----------------------|--1--1----1---1--1---1-||
|--2--2----2---2--2---2-|-5-5----------------------|--2--2----2---2--2---2-||
|--3--3----3---3--3---3-|-5-5--------------------2-|--3--3----3---3--3---3-||
|-----------------------|---------3-3--3-3-----3---|-----------------------||
|-----------------------|--------------------------|-----------------------||
|
|  E  E E  E  +Q    Q     Q    E  E    Q    E  E      E  E E  E  +Q    Q
|-----------------------|--------------------------|-----------------------||
|-15--------------------|-----17-17---17---15-15---|-15--------------------||
|----17---17-(17)-------|--------------------------|----17---17-(17)-------||
|-----------------------|--------------------------|-----------------------||
|-----------------------|--------------------------|-----------------------||
|-----------------------|--------------------------|-----------------------||


 1st & 2nd Verses
  C      G        F               C      G
  E Q  E E Q  E   E Q  E E Q  E   E Q  E E Q  E
|--------3-3--3-|-1-1--1-1-1--1-|--------3-3--3-|
|-5-5--5-3-3--3-|-1-1--1-1-1--1-|-5-5--5-3-3--3-|
|-5-5--5-4-4--4-|-2-2--2-2-2--2-|-5-5--5-4-4--4-|
|-5-5--5-5-5--5-|-3-3--3-3-3--3-|-5-5--5-5-5--5-|
|---------------|---------------|---------------|
|---------------|---------------|---------------|


  F               E               F
  E Q  E E Q  E   E Q  E E Q  E   E Q  E E Q  E
|-1-1--1-1-1--1-|-0-0--0-0-0--0-|-1-1--1-1-1--1-|
|-1-1--1-1-1--1-|-0-0--0-0-0--0-|-1-1--1-1-1--1-|
|-2-2--2-2-2--2-|-1-1--1-1-1--1-|-2-2--2-2-2--2-|
|-3-3--3-3-3--3-|-2-2--2-2-2--2-|-3-3--3-3-3--3-|
|---------------|---------------|---------------|
|---------------|---------------|---------------|


  G                               C
  E Q  E E Q  E   E Q  E E Q  E   E Q  E E Q  E  3x
|-3-3--3-3-3--3-|-3-3--3-3-3--3-|----------------||
|-3-3--3-3-3--3-|-3-3--3-3-3--3-|-5-5--5-5-5--5-o||
|-4-4--4-4-4--4-|-4-4--4-4-4--4-|-5-5--5-5-5--5--||
|-5-5--5-5-5--5-|-5-5--5-5-5--5-|-5-5--5-5-5--5--||
|---------------|---------------|---------------o||
|---------------|---------------|----------------||


 Interlude
  3.
  C               Eb                   F
  E Q  E E Q  E   E Q  E E E +S  S E    E  Q   E  E  Q   E
|---------------|--------------------|----------------------|
|-5-5--5-5-5--5-|-8-8--8-8-8-(8)-8-8-|-10-10--10-10-10--10--|
|-5-5--5-5-5--5-|-8-8--8-8-8-(8)-8-8-|-10-10--10-10-10--10--|
|-5-5--5-5-5--5-|-8-8--8-8-8-(8)-8-8-|-10-10--10-10-10--10--|
|---------------|--------------------|----------------------|
|---------------|--------------------|----------------------|


  G  F    Eb  Db     C                  Eb
   E  E E E E Q.     E Q  E E S S E E   E Q  E E Q  E
|------------------|------------------|----------------|
|-12-10---8---6----|-5-5--5-5-5-5-5-5-|-8-8--8-8-8--8--|
|-12-10---8---6----|-5-5--5-5-5-5-5-5-|-8-8--8-8-8--8--|
|-12-10---8---6----|-5-5--5-5-5-5-5-5-|-8-8--8-8-8--8--|
|------------------|------------------|----------------|
|------------------|------------------|----------------|


                                                D.S. al Coda
  F                     G  F    Eb  Db     C
   E  Q   E  E  Q   E    E  E E E E Q.     E Q  E E S S E E
|---------------------|------------------|-------------------||
|-10-10--10-10-10--10-|-12-10---8---6----|-5-5--5-5-5-5-5-5--||
|-10-10--10-10-10--10-|-12-10---8---6----|-5-5--5-5-5-5-5-5--||
|-10-10--10-10-10--10-|-12-10---8---6----|-5-5--5-5-5-5-5-5--||
|---------------------|------------------|-------------------||
|---------------------|------------------|-------------------||


   Outro
    &
    C               F
                    PM----------------------|
    E Q  E E Q  E   S S S S E S S +S  S E E E
||----------------|---------------------------|
||o-5-5--5-5-5--5-|---------------------------|
||--5-5--5-5-5--5-|---2-----2---2-(2)---------|
||--5-5--5-5-5--5-|-3---3-3---3-------3-3-3-2-|
||o---------------|---------------------------|
||----------------|---------------------------|


  C               F
                  PM--------|
  E Q  E E Q  E   S S S S E S S +S  S E E E
|---------------|----------------------------||
|-5-5--5-5-5--5-|---------------------------o||
|-5-5--5-5-5--5-|---2-----2------------------||
|-5-5--5-5-5--5-|-3---3-3---3-2-(2)-2-3-2----||
|---------------|-------------------------3-o||
|---------------|----------------------------||            
Submit corrections

↑ Back to top | Tablatures and chords for acoustic guitar and electric guitar, ukulele, drums are parodies/interpretations of the original songs. You may use it for private study, scholarship, research or language learning purposes only