» » »

Jimmy Buffett - Wonder Why We Ever Go Home Tabs

Artists:  A B C D E F G H I J K L M N O P Q R S T U V W X Y Z # 

Wonder Why We Ever Go Home Tabs

(ver. 1) Click to play this song!
Jimmy Buffett
 Rating:
4/5 (4 votes)

 Wonder Why We Ever Go Home lessons Tabs too difficult? Try these video lessons and learn fast
 
                Wonder Why We Ever Go Home
By Jimmy Buffett


Pause  a little between each chord, play twice for intro, interlude, and 
ending      


e--2-------2--------0----------0------------
B-3-------3---------2-------------2----3----
G-----2-------2-----2-------2----------0----
D----------0---------------0----------------
A-0------------------0------------------2---
E-------------------------------------------

           
e------------------0---------0-------0-------
B----------3---------2h3------2---1--------1-
G---- 0-------0-----2--------------0---------
D---2------------------------------------2---
A---------------------0--------------3-------
E--------------------------------------------

   
e----------3-----------------2-----------2---
B---------0--------0--------3--------3-------   
G-----------------------------------2--------
D---------------0----------------0 ----------
A-----------------------------0--------------
E--------3-----------------------------------


e----------2-------------2-h3p2--------------
B--------3-----------3-----------------------
G-------------------2------------------------
D---------------0----------------------------
A---------0h2--------------------------------
E--------------------------------------------

Verse

Use a progression similar to this for D-Bm-D of the verses.
Then strum or pick through the C-G-D

         D           Bm         D                
e--------2------------------------------2-----3----2-  
B-------3-------3-----3------------3-----------------   
G---------- 2---------2-------- 2--------------------     
D------------------------------0-----------------0---
A-------0------------- 0h2-------------0-------------      
E----------------------------------------------------
      Years grow    shorter not longer

Intro

Verse
D          Bm           D
Years grow shorter not longer
  D            Bm           D
The more you've been on your own.
D            Bm           D                        
Feelings for moving grow stronger
      C               G       D
So you wonder why you ever go home,
C              G       D
Wonder why you ever go home.

People are moving so quicky,
Humor's in need of repair.
Same occupations and same obligations
They really got nothing to share,
Like driving around with no spare.

Interlude

River gets deeper not shallow
The further you move down the stream.
Wondering if I can keep her
As I race to catch up to my dreams,
How they shine glitter and gleam.

Years grow shorter not longer
The more you've been on your own.
Feelings for moving grow stronger
So you wonder why you ever go home.
Wonder why you ever go home.



            
Submit corrections


        Wonder Why We Ever Go Home lessons Hard to play? Try these video lessons and learn fast Wonder Why We Ever Go Home lessons
        
↑ Back to top | Tablatures and chords for acoustic guitar and electric guitar, ukulele, drums are parodies/interpretations of the original songs. You may use it for private study, scholarship, research or language learning purposes only