» » »

Jimmy Buffett - Southern Cross Tabs

Artists:  A B C D E F G H I J K L M N O P Q R S T U V W X Y Z # 

Southern Cross Tabs

(ver. 1) Click to play this song!
Jimmy Buffett
 Rating:
3.4/5 (27 votes)

 Southern Cross lessons Tabs too difficult? Try these video lessons and learn fast
 
                 Intro
  Q=86
  A         G           D
 4/4
  Gtr I (Ac. Gtr.)
  E E S S E E E S S E   E E E E +E  E S S E
|-0-0-x-x-x-3-3-x-x-x-|-2-2-x-2-(2)-2-x-x-x-|
|-2-2-x-x-x-0-0-x-x-x-|-3-3-x-3-(3)-3-x-x-x-|
|-2-2-x-x-x-0-0-x-x-x-|-2-2-x-2-(2)-2-x-x-x-|
|-2-2-x-x-x-0-0-x-x-x-|-0-0-x-0-(0)-0-x-x-x-|
|-0-0-x-x-x-2-2-x-x-x-|---------------------|
|-----------3-3-x-x-x-|---------------------|


  A         G           D     A
  E E S S E E E S S E   E E E E +E  E S S E
|-0-0-x-x-x-3-3-x-x-x-|-2-2-x-0-(0)-0-0-0-x--||
|-2-2-x-x-x-0-0-x-x-x-|-3-3-x-2-(2)-2-2-2-x--||
|-2-2-x-x-x-0-0-x-x-x-|-2-2-x-2-(2)-2-2-2-x--||
|-2-2-x-x-x-0-0-x-x-x-|-0-0-x-2-(2)-2-2-2-x--||
|-0-0-x-x-x-2-2-x-x-x-|-------0-(0)-0-0-0-x--||
|-----------3-3-x-x-x-|----------------------||


   1st - 3rd Verses
    $
    A         G           D
    E E S S E E E S S E   E E E E +E  E S S E
||--0-0-x-x-x-3-3-x-x-x-|-2-2-x-2-(2)-2-x-x-x-|
||o-2-2-x-x-x-0-0-x-x-x-|-3-3-x-3-(3)-3-x-x-x-|
||--2-2-x-x-x-0-0-x-x-x-|-2-2-x-2-(2)-2-x-x-x-|
||--2-2-x-x-x-0-0-x-x-x-|-0-0-x-0-(0)-0-x-x-x-|
||o-0-0-x-x-x-2-2-x-x-x-|---------------------|
||------------3-3-x-x-x-|---------------------|


  A         G           D     A
  E E S S E E E S S E   E E E E +E  E S S E
|-0-0-x-x-x-3-3-x-x-x-|-2-2-x-0-(0)-0-0-0-x--|
|-2-2-x-x-x-0-0-x-x-x-|-3-3-x-2-(2)-2-2-2-x--|
|-2-2-x-x-x-0-0-x-x-x-|-2-2-x-2-(2)-2-2-2-x--|
|-2-2-x-x-x-0-0-x-x-x-|-0-0-x-2-(2)-2-2-2-x--|
|-0-0-x-x-x-2-2-x-x-x-|-------0-(0)-0-0-0-x--|
|-----------3-3-x-x-x-|----------------------|


            G           D
  E E S S E E E S S E   E E E E +E  E S S E
|-0-0-x-x-x-3-3-x-x-x-|-2-2-x-2-(2)-2-x-x-x-|
|-2-2-x-x-x-0-0-x-x-x-|-3-3-x-3-(3)-3-x-x-x-|
|-2-2-x-x-x-0-0-x-x-x-|-2-2-x-2-(2)-2-x-x-x-|
|-2-2-x-x-x-0-0-x-x-x-|-0-0-x-0-(0)-0-x-x-x-|
|-0-0-x-x-x-2-2-x-x-x-|---------------------|
|-----------3-3-x-x-x-|---------------------|


  A         G           D     A
  E E S S E E E S S E   E E E E +E  E S S E
|-0-0-x-x-x-3-3-x-x-x-|-2-2-x-0-(0)-0-0-0-x---|
|-2-2-x-x-x-0-0-x-x-x-|-3-3-x-2-(2)-2-2-2-x---|
|-2-2-x-x-x-0-0-x-x-x-|-2-2-x-2-(2)-2-2-2-x---|
|-2-2-x-x-x-0-0-x-x-x-|-0-0-x-2-(2)-2-2-2-x---|
|-0-0-x-x-x-2-2-x-x-x-|-------0-(0)-0-0-0-x---|
|-----------3-3-x-x-x-|-----------------------|


            G           D
  E E S S E E E S S E   E E E E +E  E S S E
|-0-0-x-x-x-3-3-x-x-x-|-2-2-x-2-(2)-2-x-x-x-|
|-2-2-x-x-x-0-0-x-x-x-|-3-3-x-3-(3)-3-x-x-x-|
|-2-2-x-x-x-0-0-x-x-x-|-2-2-x-2-(2)-2-x-x-x-|
|-2-2-x-x-x-0-0-x-x-x-|-0-0-x-0-(0)-0-x-x-x-|
|-0-0-x-x-x-2-2-x-x-x-|---------------------|
|-----------3-3-x-x-x-|---------------------|


  A         G           D     A
  E E S S E E E S S E   E E E E +E  E S S E
|-0-0-x-x-x-3-3-x-x-x-|-2-2-x-0-(0)-0-0-0-x---|
|-2-2-x-x-x-0-0-x-x-x-|-3-3-x-2-(2)-2-2-2-x---|
|-2-2-x-x-x-0-0-x-x-x-|-2-2-x-2-(2)-2-2-2-x---|
|-2-2-x-x-x-0-0-x-x-x-|-0-0-x-2-(2)-2-2-2-x---|
|-0-0-x-x-x-2-2-x-x-x-|-------0-(0)-0-0-0-x---|
|-----------3-3-x-x-x-|-----------------------|


            G           D
  E E S S E E E S S E   E E E E +E  E S S E
|-0-0-x-x-x-3-3-x-x-x-|-2-2-x-2-(2)-2-x-x-x-|
|-2-2-x-x-x-0-0-x-x-x-|-3-3-x-3-(3)-3-x-x-x-|
|-2-2-x-x-x-0-0-x-x-x-|-2-2-x-2-(2)-2-x-x-x-|
|-2-2-x-x-x-0-0-x-x-x-|-0-0-x-0-(0)-0-x-x-x-|
|-0-0-x-x-x-2-2-x-x-x-|---------------------|
|-----------3-3-x-x-x-|---------------------|


                           To Coda
  A         G           D
                       2/4
  E E S S E E E S S E   E E S S E
|-0-0-x-x-x-3-3-x-x-x-|-2-2-x-x-x---||
|-2-2-x-x-x-0-0-x-x-x-|-3-3-x-x-x---||
|-2-2-x-x-x-0-0-x-x-x-|-2-2-x-x-x---||
|-2-2-x-x-x-0-0-x-x-x-|-0-0-x-x-x---||
|-0-0-x-x-x-2-2-x-x-x-|-------------||
|-----------3-3-x-x-x-|-------------||


                        Pre-Chorus
  A                      G         D
 4/4
  E E E E +E  E S S E    E E S S E E E S S E
|-0-0-x-0-(0)-0-0-0-x-||-3-3-x-x-x-2-2-x-x-x-|
|-2-2-x-2-(2)-2-2-2-x-||-0-0-x-x-x-3-3-x-x-x-|
|-2-2-x-2-(2)-2-2-2-x-||-0-0-x-x-x-2-2-x-x-x-|
|-2-2-x-2-(2)-2-2-2-x-||-0-0-x-x-x-0-0-x-x-x-|
|-0-0-x-0-(0)-0-0-0-x-||-2-2-x-x-x-----------|
|---------------------||-3-3-x-x-x-----------|


  G         A           G         D
  E E S S E E E S S E   E E S S E E E S S E
|-3-3-x-x-x-0-0-x-x-x-|-3-3-x-x-x-2-2-x-x-x-|
|-0-0-x-x-x-2-2-x-x-x-|-0-0-x-x-x-3-3-x-x-x-|
|-0-0-x-x-x-2-2-x-x-x-|-0-0-x-x-x-2-2-x-x-x-|
|-0-0-x-x-x-2-2-x-x-x-|-0-0-x-x-x-0-0-x-x-x-|
|-2-2-x-x-x-0-0-x-x-x-|-2-2-x-x-x-----------|
|-3-3-x-x-x-----------|-3-3-x-x-x-----------|


  G         A           G         D           G           A
                                             2/4         4/4
  E E S S E E E S S E   E E S S E E E S S E   E E S S E   E E E E +E  E S S E
|-3-3-x-x-x-0-0-x-x-x-|-3-3-x-x-x-2-2-x-x-x-|-3-3-x-x-x-|-0-0-x-0-(0)-0-0-0-x--|
|-0-0-x-x-x-2-2-x-x-x-|-0-0-x-x-x-3-3-x-x-x-|-0-0-x-x-x-|-2-2-x-2-(2)-2-2-2-x--|
|-0-0-x-x-x-2-2-x-x-x-|-0-0-x-x-x-2-2-x-x-x-|-0-0-x-x-x-|-2-2-x-2-(2)-2-2-2-x--|
|-0-0-x-x-x-2-2-x-x-x-|-0-0-x-x-x-0-0-x-x-x-|-0-0-x-x-x-|-2-2-x-2-(2)-2-2-2-x--|
|-2-2-x-x-x-0-0-x-x-x-|-2-2-x-x-x-----------|-2-2-x-x-x-|-0-0-x-0-(0)-0-0-0-x--|
|-3-3-x-x-x-----------|-3-3-x-x-x-----------|-3-3-x-x-x-|----------------------|


                        Chorus
                         D         G           A
  E E E E +E  E S S E    E E S S E E E S S E   E E S S E E E S S E
|-0-0-x-0-(0)-0-0-0-x-||-2-2-x-x-x-3-3-x-x-x-|-0-0-x-x-x-0-0-x-x-x-|
|-2-2-x-2-(2)-2-2-2-x-||-3-3-x-x-x-0-0-x-x-x-|-2-2-x-x-x-2-2-x-x-x-|
|-2-2-x-2-(2)-2-2-2-x-||-2-2-x-x-x-0-0-x-x-x-|-2-2-x-x-x-2-2-x-x-x-|
|-2-2-x-2-(2)-2-2-2-x-||-0-0-x-x-x-0-0-x-x-x-|-2-2-x-x-x-2-2-x-x-x-|
|-0-0-x-0-(0)-0-0-0-x-||-----------2-2-x-x-x-|-0-0-x-x-x-0-0-x-x-x-|
|---------------------||-----------3-3-x-x-x-|---------------------|


  D         G           A
  E E S S E E E S S E   E E S S E E E S S E
|-2-2-x-x-x-3-3-x-x-x-|-0-0-x-x-x-0-0-x-x-x-|
|-3-3-x-x-x-0-0-x-x-x-|-2-2-x-x-x-2-2-x-x-x-|
|-2-2-x-x-x-0-0-x-x-x-|-2-2-x-x-x-2-2-x-x-x-|
|-0-0-x-x-x-0-0-x-x-x-|-2-2-x-x-x-2-2-x-x-x-|
|-----------2-2-x-x-x-|-0-0-x-x-x-0-0-x-x-x-|
|-----------3-3-x-x-x-|---------------------|


  D         G           A
  E E S S E E E S S E   E E E E e E Q
|-2-2-x-x-x-3-3-x-x-x-|-0-0-0-0-0------||
|-3-3-x-x-x-0-0-x-x-x-|-2-2-2-2-2------||
|-2-2-x-x-x-0-0-x-x-x-|-2-2-2-2-2------||
|-0-0-x-x-x-0-0-x-x-x-|-2-2-2-2-2------||
|-----------2-2-x-x-x-|-0-0-0-0-0------||
|-----------3-3-x-x-x-|----------------||


 Interlude
  A         G           D
  E E S S E E E S S E   E E E E +E  E S S E
|-0-0-x-x-x-3-3-x-x-x-|-2-2-x-2-(2)-2-x-x-x-|
|-2-2-x-x-x-0-0-x-x-x-|-3-3-x-3-(3)-3-x-x-x-|
|-2-2-x-x-x-0-0-x-x-x-|-2-2-x-2-(2)-2-x-x-x-|
|-2-2-x-x-x-0-0-x-x-x-|-0-0-x-0-(0)-0-x-x-x-|
|-0-0-x-x-x-2-2-x-x-x-|---------------------|
|-----------3-3-x-x-x-|---------------------|


                       1.
  A         G           D     A
  E E S S E E E S S E   E E E E +E  E S S E
|-0-0-x-x-x-3-3-x-x-x-|-2-2-x-0-(0)-0-0-0-x--||
|-2-2-x-x-x-0-0-x-x-x-|-3-3-x-2-(2)-2-2-2-x-o||
|-2-2-x-x-x-0-0-x-x-x-|-2-2-x-2-(2)-2-2-2-x--||
|-2-2-x-x-x-0-0-x-x-x-|-0-0-x-2-(2)-2-2-2-x--||
|-0-0-x-x-x-2-2-x-x-x-|-------0-(0)-0-0-0-x-o||
|-----------3-3-x-x-x-|----------------------||


                                           Outro
  2.
          D.S. al Coda &
  D     A                 A                 A         G
  E E E E +E  E S S E     E E E E e E Q     E E S S E E E S S E
|-2-2-x-0-(0)-0-0-0-x--||-0-0-0-0-0------||-0-0-x-x-x-3-3-x-x-x--|
|-3-3-x-2-(2)-2-2-2-x--||-2-2-2-2-2------||-2-2-x-x-x-0-0-x-x-x--|
|-2-2-x-2-(2)-2-2-2-x--||-2-2-2-2-2------||-2-2-x-x-x-0-0-x-x-x--|
|-0-0-x-2-(2)-2-2-2-x--||-2-2-2-2-2------||-2-2-x-x-x-0-0-x-x-x--|
|-------0-(0)-0-0-0-x--||-0-0-0-0-0------||-0-0-x-x-x-2-2-x-x-x--|
|----------------------||----------------||-----------3-3-x-x-x--|


                                              H.=H
  D                     A         G           D
  E E E E +E  E S S E   E E S S E E E S S E   E E E E +H
|-2-2-x-2-(2)-2-x-x-x-|-0-0-x-x-x-3-3-x-x-x-|-2-2-x-2-(2)----*|
|-3-3-x-3-(3)-3-x-x-x-|-2-2-x-x-x-0-0-x-x-x-|-3-3-x-3-(3)----*|
|-2-2-x-2-(2)-2-x-x-x-|-2-2-x-x-x-0-0-x-x-x-|-2-2-x-2-(2)----*|
|-0-0-x-0-(0)-0-x-x-x-|-2-2-x-x-x-0-0-x-x-x-|-0-0-x-0-(0)----*|
|---------------------|-0-0-x-x-x-2-2-x-x-x-|----------------*|
|---------------------|-----------3-3-x-x-x-|----------------*|            
Submit corrections


        Southern Cross lessons Hard to play? Try these video lessons and learn fast Southern Cross lessons
        
↑ Back to top | Tablatures and chords for acoustic guitar and electric guitar, ukulele, drums are parodies/interpretations of the original songs. You may use it for private study, scholarship, research or language learning purposes only