» » »

Jimmy Buffett - Jimmy Dreams Tabs

Artists:  A B C D E F G H I J K L M N O P Q R S T U V W X Y Z # 

Jimmy Dreams Tabs

(ver. 1) Click to play this song!
Jimmy Buffett
 Rating:
4/5 (4 votes)

 Jimmy Dreams lessons Tabs too difficult? Try these video lessons and learn fast
 
                Jimmy Dreams

Capo 5

G
Jimmy dreams he's a child to the end
            C
What a joy, when you are your best friend
                D                             C
The world's such a toy if you'll just stay a boy
                         C/B    Am7     G
You can spin it again and again

Jimmy flies with no use for disguise
Just escapes using mirrors and capes
And the words do the trick, there is no bigger kick
Than just rhyming again and again

Em                                    D
The smell of the low tide, the sound of the rain
   C                                G                 
Traveling alone in my boat or my plane
   Em                                  D
Take it all in its as big as it seems
    C                                        G
Count all your blessings remember your dreams

Jimmy stares towards the bright Pleiades
Its so strange what his distant eye sees
Who knows why you start rediscovering your heart
But you do it again and again

Jimmy dreams his a child to the end
What a joy when you are your best friend
The world's still a toy if just stay a boy
And that's why Jimmy dreams




Jimmy dreams,                he's a child to the end
e-----------------3----------------------3--------------
B-----------------0------0----------------0--------0----
G-------------0----------0------------0------------0----
D----------0---------0------------0-------------0-------
A-------------------------------------------------------
E------3---------------------3--------------------------

    What a joy,              when you are you're best friend
e---------------0-----------------------0---------------
B--------------1-----------------------1----------------
G----------0---------0-------------0--------------0-----
D-------2----------------------2------------------------
A----3------------3---------3-----------------3---------
E-------------------------------------------------------

  The world's just a toy         
e----2---2-2h3--2----------------
B---3---------------------3------
G--------------------------------
D---0-----------------0----------
A--------------------------------
E--------------------------------
   if you just stay a boy
e----------------------------1---0-----------
B------------1----------------------------1--
G-------------------------------------------0
D------------------------2-----------2-------
A--------------3-----------------------------
E--------------------------------------------
 
 You can spin it  again  and a  --gain
e-----------------------------------------------------
B-------------1-------------------------------------0-
G-------------0----------------------------------0----
D----------2-------------0------------------0---------
A-----3--------------2----------0---------------------
E----------------------------------------3------------






 The smell of the low tide,   the sound of the rain
e------------------------------------2----------2-----
B-----------0-----------0-----------------3-----------
G----------0------------0-------------2---------------
D--------2-----------2-------------0----------0-------
A-----------------------------------------------------
E-----0-------------0---------------------------------

Traveling alone in my boat or my plane
e-----------------------------------------------------
B--1----------1-----------------0---------------------
G---------0---0-----------------0---------------------
D-----2-----------------------0-----------------------
A--3--------------------------------------------------
E--------------------------3------------3----2----- 0-

  Take it all in          it's as big as it seems
e------------------------------------2----------2-----
B-----------0-----------0-----------------3-----------
G----------0------------0-------------2---------------
D--------2-----------2-------------0----------0-------
A-----------------------------------------------------
E-----0-------------0---------------------------------




 count all your blessings        remember your dreams
e----------------------------------------------------2-
B------------1----------------------------------3------
G------------0------------------------------2----------
D--------2-----------------------------0---------------
A----3-------------------------------------------------
E------------------------------------------------------
            
Submit corrections


        Jimmy Dreams lessons Hard to play? Try these video lessons and learn fast Jimmy Dreams lessons
        
↑ Back to top | Tablatures and chords for acoustic guitar and electric guitar, ukulele, drums are parodies/interpretations of the original songs. You may use it for private study, scholarship, research or language learning purposes only