» » »

Jimmy Buffett - Honey Do Tabs

Artists:  A B C D E F G H I J K L M N O P Q R S T U V W X Y Z # 

Honey Do Tabs

(ver. 1) Click to play this song!
Jimmy Buffett
 Rating:
4/5 (4 votes)

 Honey Do lessons Tabs too difficult? Try these video lessons and learn fast
 
                HONEYDO
Jimmy Buffett


Gtr I   Acoustic Steel
Gtr II  Acoustic Nylon
Gtr III Acoustic Nylon
Gtr IV  Acoustic Steel
Gtr V   Acoustic Steel
Gtr VI  Acoustic Steel

All Guitars Standard Tuning

  Q=80
 4/4
  Gtr I
  H    Q  E. S   +S  +S  E E E. S  E  S S +Q
|------------7-|-(7)-----7---7-----7----6-(6)--|
|---------3--8-|-(8)-----8---8-----8----7-(7)--|
|---------4--7-|-(7)-----7---7-----7----6-(6)--|
|---------5--9-|-(9)-(9)-9-9----9-(9)---8-(8)--|
|---------5----|-------------------------------|
|--------------|-------------------------------|


    S  E. +E  E  S  +Q    Q   E.
|------6--(6)---12-(12)-----------|
|--17--7--(7)-5-12-(12)------12---|
|------9--(9)---12-(12)------12---|
|------------------(14)------12---|
|------------------------14-------|
|-(18)----------------------------|


   +E    S    S   +H     Q     S   E   S  E  E S  E  S   E  E S
|---------------------------|-------------8--8----8------8----7-|
|-(12)-(12)--12--(12)-------|-12------10----10---10-----10----9-|
|-(12)-(12)--13--(13)-------|-----13------9--9----9------9----9-|
|-(12)-(12)--14--(14)-------|-----14-----10-10---10-10-(10)-9---|
|-(14)--14--(14)-(14)-------|-----------------------------------|
|---------------------------|-12-(12)---------------------------|


  +E   E  +E  E S +S  S E +Q
|-(7)--8--(8)---7-(7)---5-(5)---|
|-(9)--9--(9)---9-(9)---5-(5)---|
|-(9)--9--(9)---9-(9)---5-(5)---|
|-(9)-10-(10)-9---(9)---7-(7)---|
|-------------------------------|
|-------------------------------|


  +S  S E Q  E S S +E   S   S     S   E  +S  Q  +E  +S   S   E   E
|-(5)--------3---3-(3)-(3)--2--|-(2)--3--(3)-5--(5)----------------|
|-(5)--------5---5-(5)-(5)--5--|-(5)--5--(5)-5--(5)------8------10-|
|-(5)--------5---5-(5)-(5)-----|--0---5--(5)-6--(6)------9---------|
|-(7)--------5---5-(5)--4--(4)-|-----(5)-----7--(7)-(7)------8---7-|
|------------------------------|------------------------10-(10)----|
|------------------------------|-----------------------------------|


   S  +E. E  E   S    S   E.  S    Q
|-(5)-----7-(7)-10--(10)--7--(7)--12---|
|--0------8--3--------0--(0)--5---12---|
|-----(4)-7-(7)-(7)---------------13---|
|--------------------------------(14)--|
|--------------------------------------|
|--------------------------------------|


   +Q    +S  S E Q   E.  E. S    E   +E  S +S    E    S    Q    +S   S   E
|-(12)------------------------|------------(7)--10--(10)----------------(0)-|
|-(12)------------------11----|-12--(12)---(5)--10--(10)--13---(13)--1--(1)-|
|-(13)------------------13----|--9---(9)-7-(7)---9---(9)------------(5)-(0)-|
|-(14)--(14)------------14--9-|-(9)------------(12)--10--(10)--(10)------2--|
|-------------------13--------|---------------------------------------------|
|-----------------------------|---------------------------------------------|


  +S  E.  E  +S    S    E   S   E. +S   S   E
|-(0)-----------------------5--(5)-(5)--3--(3)--|
|-(1)-0--12-(12)-(12)--11---5--(5)-(5)--3--(3)--|
|-(0)----12-(12)-(12)--11---5--(5)-(5)--4--(4)--|
|-(2)----12-(12)-(12)--11--(8)--7--(7)-(7)--5---|
|-----------(14)--13--(13)----------------------|
|-----------------------------------------------|


  Q=125
  +S   S   E  +E. +S  +E  E E E     +H                +Q.           S S
|-(3)-(3)---------------------3---|-(3)---------------(3)-----------0-3-|
|-(3)-(3)--3--(3)-(3)-(3)-----3---|-(3)---------------(3)-----------2---|
|-(4)-(4)--5--(5)-(5)-(5)-----4---|-(4)---------------(4)-----------3---|
|-(5)--0---7--(7)-(7)-(7)---------|-------------------------------------|
|---------(5)-(5)-----------------|-------------------------------------|
|---------------------------------|-------------------------------------|
|
| Gtr II
|  H                   Q    E S S    E    S S S S S S  S  S S S S S S S
|-----------------------------0---|-------------0-0-----------------0---|
|---------------------------------|-------------------------------------|
|---------------------------------|-------------------------------------|
|---------------------------------|-------------------------4-----------|
|---------------------------------|-------------------------------------|
|---------------------------------|-------2---------------2-------2-----|
|
| Gtr III
|  H                   Q    E E     +S  S S S S S E   +S  S S S S S E
|---------------------------------|-------------------------------------|
|-----------------------------3---|-(3)---3-------3---(3)-----3-----5---|
|-----------------------------4---|-(4)---4-------4---(4)---4-------6---|
|-----------------------------5---|-(5)---------5-----------5-----5-8---|
|---------------------------------|-------------------------------------|
|---------------------------------|-------------------------------------|


  +H              +Q.           E     +H                 E    E   E   E
|-(3)-------------(3)-----------3---|-(3)----------------2----5------------|
|-------------------------------1---|-(1)---------------------8---5---7----|
|-------------------------------2---|-(2)-----------------------------7----|
|-----------------------------------|--------------------------------------|
|-----------------------------------|--------------------------------------|
|-----------------------------------|--------------------------------------|
|
|  E  S S S S S S  E    S S S S S S    E    S S S S S S  S  S S S S S S S
|-----------0-0-----------------0---|-------------0-0-----------------0----|
|-----------------------------------|--------------------------------------|
|-----------------------------------|--------------------------------------|
|-----------------------4-----------|-------------------------4------------|
|-----------------------------------|--------------------------------------|
|-----2-----------------------2-----|-------2---------------2-------2------|
|
| +E  S S S S E   +S  S S S S S E     +S  S S S E   E   +E    S S E   E
|-----------------------------------|--------------------------------------|
|-(5)-5-------5---(5)---5-------5---|-(5)-----------5---(5)---5-------3----|
|-(6)-6-------6---(6)---6-------5---|-(5)---5-9-----5---(5)---5-------5----|
|-(8)-------5-8---(8)---8-----7-----|---------7-----7---(7)---7---4---7----|
|-----------------------------------|--------------------------------------|
|-----------------------------------|--------------------------------------|


  +H                +Q        +S  S E     +H                +Q.           E
|---------------------------------------|-------------------------------------|
|-(7)---------------(7)-------(7)---8---|-(8)---------------(8)-----------5---|
|-(7)---------------(7)-------(7)---7---|-(7)---------------(7)-----------6---|
|-----------------------------------9---|-(9)---------------(9)-----------8---|
|---------------------------------------|-------------------------------------|
|---------------------------------------|-------------------------------------|
|
|  E    S S S S S S  S  S S S  S  S S S    E    S S S S S S  E    S S S S S S
|-------------0-0-------------------0---|-------------0-0-----------------0---|
|---------------------------------------|-------------------------------------|
|---------------------------------------|-------------------------------------|
|-------------------------4-------------|-------------------------4-----------|
|---------------------------------------|-------------------------------------|
|-------2---------------2---------2-----|-------2-----------------------2-----|
|
| +S  S S S S S E   +S  S S S  S  S E     +S  S S S S S E   +S  S S S S S E
|---------------------------------------|-------------------------------------|
|-(3)---3-------3---(3)---3---------3---|-(3)---3-------3---(3)---3-------5---|
|-(5)---5-------5---(5)---5---------4---|-(4)---4-------4---(4)---4-------6---|
|-(7)---7-----4-7---(7)---7-------5-----|-------------
            
Submit corrections


        Honey Do lessons Hard to play? Try these video lessons and learn fast Honey Do lessons
        
↑ Back to top | Tablatures and chords for acoustic guitar and electric guitar, ukulele, drums are parodies/interpretations of the original songs. You may use it for private study, scholarship, research or language learning purposes only