» » »

Jimmy Buffett - Come Monday Bass

Artists:  A B C D E F G H I J K L M N O P Q R S T U V W X Y Z # 

Come Monday Bass

(ver. 1) Click to play this song!
Jimmy Buffett
 Rating:
4/5 (4 votes)

 Come Monday lessons Tabs too difficult? Try these video lessons and learn fast
 
                Gtr I (E A D G) - 'Tommy Cogbill - Bass'


 Intro
  Q=108
 4/4
  Gtr I
  W          W          W          W
|----------|----------|----------|------||
|----------|----------|----------|------||
|----------|----------|----------|------||
|----------|----------|----------|------||


 1st Verse
  W          W          W          W
|----------|----------|----------|------|
|----------|----------|----------|------|
|----------|-5--------|-7--------|------|
|-5--------|----------|----------|-5----|


  W          W          W          H    +Q.   E
|----------|----------|----------|---------------|
|----------|----------|----------|------------7--|
|----------|-5--------|-7--------|---------------|
|-5--------|----------|----------|-5----(5)------|


  W          W          W          W
|-4--------|----------|----------|------||
|----------|----------|----------|------||
|----------|-5--------|-7--------|-7----||
|----------|----------|----------|------||


 Chorus
  W          H.      Q    H.      E E   W
|----------|------------|-------------|------|
|----------|---------7--|-------------|------|
|-5--------|------------|-5---------5-|-7----|
|----------|-5----------|-------------|------|


  Q.   E H      Q.   E H      Q.   E H      W          W
|-------------|-------------|-------------|----------|------||
|-------------|-------------|-------------|-7--------|-7----||
|--------4----|-5----5-7----|-5----5-7----|----------|------||
|-5----5------|-------------|-------------|----------|------||


 2nd Verse
  H    +Q.   E   W          H    +Q.   E   W
|--------------|----------|--------------|------|
|--------------|----------|--------------|------|
|--------------|-5--------|-7----(7)---7-|------|
|-5----(5)---5-|----------|--------------|-5----|


  W          H    +Q.   E   W          H    +Q.   E
|----------|--------------|----------|---------------|
|----------|--------------|----------|---------------|
|----------|-5----(5)---5-|-7--------|---------------|
|-5--------|--------------|----------|-5----(5)---5--|


  H    +Q.   E   H    +Q.   E   W          W
|--------------|--------------|----------|------||
|--------------|--------------|----------|------||
|--------------|-5----(5)---5-|-7--------|-7----||
|-7----(7)---7-|--------------|----------|------||


 Chorus
  Q.   E H      H    H      Q.   E H      H    Q  Q
|-------------|-----------|-------------|-------------|
|-------------|-----------|-------------|-------------|
|-5----5-5----|-----------|-5----5-5----|-7----7--9---|
|-------------|-5----5----|-------------|-------------|


  Q.   E H      Q.   E H      Q.   E H      H    +Q.   E   W
|-------------|-------------|-------------|--------------|------||
|-------------|-------------|-------------|--------------|-7----||
|--------4----|-5----5-7----|-5----5-7----|------------7-|------||
|-5----5------|-------------|-------------|-5----(5)-----|------||


 Bridge
  Q.   E H      Q  E E H      Q.   E H      Q  E E H
|-------------|-------------|-------------|-------------|
|-------------|-------------|-------------|-------------|
|-------------|-7----7-7----|-------------|-7----7-7----|
|-7----7-7----|-------------|-7----7-7----|-------------|


  Q  E E H      Q  E E H      Q.   E H      Q.   E H
|-------------|-------------|-------------|-------------|
|-------------|-------------|-------------|-------------|
|-------------|-7----7-7----|-5----5-5----|-7----7-7----|
|-7----7-7----|-------------|-------------|-------------|


                Pedal Steel Solo
  Q.   E H       H    H      Q  E E H      Q.   E Q.   E
|-------------||-----------|-------------|----------------|
|-------------||------5----|-------------|----------------|
|-7----7-7----||-----------|-5----5-5----|-------------7--|
|-------------||-3---------|-------------|-5----5-5-------|


                 3rd Verse
  H    +Q.   E    W          W          W
|--------------||----------|----------|------|
|-7----(7)-----||----------|----------|------|
|------------7-||----------|-5--------|-7----|
|--------------||-5--------|----------|------|


  H    +Q.   E   H    +Q.   E   H    +Q.   E   H    +Q.   E
|--------------|--------------|--------------|---------------|
|--------------|--------------|--------------|---------------|
|--------------|--------------|-5----(5)---5-|-7----(7)---7--|
|-5----(5)-----|-5----(5)---5-|--------------|---------------|


  H    +Q.   E   W          W          W
|--------------|----------|----------|------|
|--------------|----------|----------|------|
|--------------|----------|-5--------|-7----|
|-5----(5)---5-|-7--------|----------|------|


             Chorus
  W           Q  E E H      Q  E E H      Q  E E H
|----------||-------------|-------------|-------------|
|----------||-------------|-------------|-------------|
|-7--------||-5----5-5----|-------------|-5----5-5----|
|----------||-------------|-5----5-5----|-------------|


  Q.   E H      Q.   E H      Q.   E H      Q.   E H
|-------------|-------------|-------------|-------------|
|-------------|-------------|-------------|-------------|
|-7----7-7----|--------4----|-5----5-7----|-5----5-7----|
|-------------|-5----5------|-------------|-------------|


  H    H      Q.   E H      Q.   E H      Q.   E H
|-----------|-------------|-------------|-------------|
|------7----|-------------|-------------|-------------|
|-----------|--------4----|-5----5-7----|-5----5-7----|
|-5---------|-5----5------|-------------|-------------|


  Q.   E H      H    E E Q    W          +W
|-------------|-------------|----------|--------*|
|-------------|-------------|----------|--------*|
|-5----5-5----|-5----5-4----|----------|--------*|
|-------------|----------7--|-5--------|-(5)----*|
            
Submit corrections


        Come Monday lessons Hard to play? Try these video lessons and learn fast Come Monday lessons
        
↑ Back to top | Tablatures and chords for acoustic guitar and electric guitar, ukulele, drums are parodies/interpretations of the original songs. You may use it for private study, scholarship, research or language learning purposes only