Home » J » Jimmy Buffet »

Jimmy Buffet - Mexico Tabs

Artists:  A B C D E F G H I J K L M N O P Q R S T U V W X Y Z # 

Mexico Tabs

(ver. 1) Click to play this song!
Jimmy Buffet
E|----0-2-4-7-0------0-----4-2-4-0-2---2-4-5-4-0-------------|
B|-----------------4---2-------------------------2-7-5-3-2---|
G|-----------------------------------------------------------|
D|-----------------------------------------------------------|
A|-----------------------------------------------------------|
E|-----------------------------------------------------------|


E|-0-2-4-7-0------0------------------------------------------|
B|--------------4---2----------------------------------------|
G|------------------------4-2-2-4-1---1-2-4-2-2—2-4-1--------|
D|--------------------2-2------------------------------------|
A|-----------------------------------------------------------|
E|-----------------------------------------------------------|
            
Submit corrections

↑ Back to top | Tablatures and chords for acoustic guitar and electric guitar, ukulele, drums are parodies/interpretations of the original songs. You may use it for private study, scholarship, research or language learning purposes only