Home » J » Jimi Hendrix »

Jimi Hendrix - Sgt Peppers Lonely Hearts Club Band Tabs

Artists:  A B C D E F G H I J K L M N O P Q R S T U V W X Y Z # 

Sgt Peppers Lonely Hearts Club Band Tabs

(ver. 1) Click to play this song!
Jimi Hendrix
 Rating:
2.8/5 (26 votes)
                 Intro
  Q=107
  E
 4/4
  Gtr I (El. Gtr. - 1/2 step down)
  H    Q   Q     E E E S S a S S S S +S  S  E
|--------------|-----0-0-0---------------0-----|
|--------------|-----0-0-0-----3-5-5-(5)-------|
|--------------|-----------2s4-----------------|
|--------------|-------------------------------|
|--------------|-------------------------------|
|---------10\--|-0-0-----------------------15\-|


  E E E S S a S S S S +S  S  S  S
|-----0-0-0-------3-----------------|
|-----0-0-0-----3-3-5-(5)-5---------|
|-----------2s4---------------------|
|-----------------------------------|
|---------------------------16\-----|
|-0-0-----------------------16\-0---|


  G                                 A
  E E a S S S S S   +S  E S S S S   e e e e q  S S  E
|---------3---5-5b7r(5)-5-3p0-----|--------------x-----||
|-----------3-----------3-3p0-----|--------------x-----||
|-----2s4-------------------------|------------x-x-----||
|---------------------------------|-7-7-7-7-7--x-------||
|---------------------------------|------------x-------||
|-3-3-------------------------3s5-|-5-5-5-5-5------15\-||


 Verse
  E7        F#7         A7        E7                    F#7
  PM|       PM|         PM|                             PM|
  E E E S S E E E S S   E E E S S E E E S S   E E E S S E E E S S
|---------------5-----|---------------------|-----3---------------|
|-----3---------5-----|-----5-5-5-----3-----|-----3---------------|
|-----1---1-----3-----|-----6-6-6-----1-----|-----1---------3-----|
|-----2-2-------4-----|-----5-5-5-----2-----|-----2-2p0-----2-----|
|---------------------|---------------------|---------------------|
|-0-0-0-0---2-2---0-5-|-5-5-5-----0-0-0-0-0-|-0-0-------2-2---x-5-|


  A7        E           F#              F#7       G
  PM|                               PM|     PM|
  E E E S S E E E S S   E E E S S E S S S S S S   E E E S S  S S S S S S S S
|---------------------|-------------------------|---------0----0-0-0-0-0-0-0--|
|-----7---------0-0-0-|-2---2---2-2-----5-5-----|---3-3---0-/3-3-3-3-3-3-3-3--|
|-----6-6-6-----1-1-1-|-3---3---3-3-----3-3-----|-----4-----/4-4-4-4-4-4-4-4--|
|-----5-5-5-----2-2-2-|-4---4---4-4-----4-4-----|---5-5-----------------------|
|---------------2-2-2-|-------------------------|-----------------------------|
|-5-5---5-5-0-0-0-0-0-|-2-2-2-2-----2-2-----2-2-|-3-3-3-3---------------------|


  E   G#    A A#B     E
  E E E E E E E S S   E E E S S E S S S   +S   S S
|-------------------|-----0-----0-0-0--------------||
|-------------------|-----0-0-0-0-0-0------------3-||
|-------------------|-----1-----1-1-1-2b3r(2)-/4---||
|-----6-6-6-7-8-9-9-|-----2-----2-2-2--------------||
|-2-2---------------|-----------2-2-2--------------||
|-0-0-4-4-4-5-6-7-7-|-0-0-------0-0-0--------------||


 Guitar Solo
  N.C.
                                                         ~~
  E E  E      +E    E  E  E  a  S  S    E       E  E  E  Q   E  S  S
|------------------------------------|-------------------------------|
|------0-----------------------------|-------------------------------|
|-----14b16==(14)r-------------------|------------12----12-----12-12-|
|------------------------------------|------------12--------14-14-14-|
|------------------12-12-14-12h14p12-|---------------14------0-------|
|-0-0--------------------------------|-15b15.5-12--------------------|


            |--3--|  |--3--|
   S     S  S  S  S  S  S  S  S  S      +S     E.  +E   E
|----------12-------12-------12--------------^12--(12)-------|
|-------12----15p12----15p12-----------------^12--(12)-------|
|-14b16-------------------------14b16==(14)r-----------14b16-|
|------------------------------------------------------------|
|------------------------------------------------------------|
|------------------------------------------------------------|


                                    ~~~~~
   S  S  S  S  S  S  S S E  E      +Q
|--------------------------15b17==(15)r--|
|-------------12-12----x-0---------------|
|-14-12-----0-12-12----x-----------------|
|-------14-14-------14-------------------|
|----------------------------------------|
|----------------------------------------|


                           ~~~            ~~~~~~~
   S      E      S  S      E. S  S  E  E  E
|-15pb16-15pb17-15-15pb17-15--x-12----12--------|
|-15pb16----------------------x-12-15-12-15b17==|
|-----------------------------------------------|
|-----------------------------------------------|
|-----------------------------------------------|
|-----------------------------------------------|


 ~~~~~~~
   +E    S  S  S  E     S  S  S       S  T      +T   S  S  E
|-------12----12----------12---------12----------------------|
|-(15)r----15-12-------12----15b15.5-12-12-------------------|
|----------------14b16------------------14pb16r(14)p12----12-|
|------------------------------------------------------14----|
|------------------------------------------------------------|
|------------------------------------------------------------|


   S     S  S     S  S     S  S     S  S     S  S  S  E      S  S
|-------12-------12-------12-------12-------12-12-12--------------|
|-------12-------12-------12-------12-------12-------12-----------|
|-14b16----14b16----14b16----14b16----14b16----------14pb16-14p12-|
|-----------------------------------------------------------------|
|-----------------------------------------------------------------|
|-----------------------------------------------------------------|


                     E
   E     +S   S  Q   H
|-------------------------*|
|-------------------------*|
|-14b16r(14)p12-12\--1----*|
|--------------------2----*|
|--------------------2----*|
|--------------------0----*|            
Submit corrections

↑ Back to top | Tablatures and chords for acoustic guitar and electric guitar, ukulele, drums are parodies/interpretations of the original songs. You may use it for private study, scholarship, research or language learning purposes only