Home » J » Jimi Hendrix »

Jimi Hendrix - Little Wing Tabs

Artists:  A B C D E F G H I J K L M N O P Q R S T U V W X Y Z # 

Little Wing Tabs

(ver. 1) Click to play this song!
Jimi Hendrix
 Rating:
4.3/5 (24 votes)
                             Em                                   G
        e---x--12\-----x--x---------------------|-------3h5p3----------------------------|
        B---x--12\-----x--x---------------------|-------3---------3--3--3--3--3----------|
        G---x--12\-----x--x---------------5--5--|----0---------4--5--5--4--5--4----------|
        D---x--12\-----x--x-------0-------5--7--|--------------------------------5-------|
        A--------------x--x--0h2-----5h7--------|----------------------------------------|
        E-----------0--x--x---------------------|-3--------------------------------------|

            Am                                      Em
        e-----------------------------------------|-----------------------------------------|
        B-----------------------------------------|-------8h10p8----------------------------|
        G------------5-----5----5-----------------|-------7-----------------7--7----7-------|
        D------------5-----5h7--5--5-------5------|-------------------------7--7h9--7-------|
        A---0---5h7-----7----------7--5h7---------|----7----------7--7--10-------------10--7|
        E-------------------------------------5h7-|-0---------------------------------------|

            Bm                       Bbm      Am             C
        e---------9-10--9---7--7----------|--------------------------------------|
        B---------7--7--7--10--7----------|--------------------------------------|
        G-------------------------7-----6-|------5--5--5--5--------5--5--5-------|
        D------9------------------9-----8-|------7--9--7--5--5--5--5--7--5-------|
        A---------------------------------|---0--------------8--7----------------|
        E---7------------------------6----|---------------------------------5h7--|
                                   Thumb


            G               Fsus2          C                 D
        e---------5/7--5--5\3--3-----3-|------------------|--------------------------------------|
        B---------3/5--3--3\1--1-----1-|-----------1--3p1-|--------------------------------------|
        G------0--0-0--0--0-0--0-----0-|--------0--0--0---|------------------7----7--7-----------|
        D---------5/7--5--5\3--3-----3-|--------2---------|-------7----7-----7h9--7--7---7--7--7\|
        A------------------------------|---0h3------------|---/5-----5----5-------------10--7--9\|
        E---3---------------------1----|------------------|--------------------------------------|
                                Thumb
            
Submit corrections

↑ Back to top | Tablatures and chords for acoustic guitar and electric guitar, ukulele, drums are parodies/interpretations of the original songs. You may use it for private study, scholarship, research or language learning purposes only