Home » J » Jimi Hendrix »

Jimi Hendrix - Jungle Tabs

Artists:  A B C D E F G H I J K L M N O P Q R S T U V W X Y Z # 

Jungle Tabs

(ver. 1) Click to play this song!
Jimi Hendrix
 Rating:
4/5 (4 votes)
                Jimi Hendrix - Jungle

 Tab by aldoalain


|-------------------------------------------------------------------------|
|---------5-----------------6-6-6----------------------6------------------|
|---------5h7p5-----------5-5-5-5----------------------5------------------|
|-------7-------6h7-5---0-----------7---7--------0-------3----------------|
|-0---7---------------5---------------7-7-7----5---5-------5--------------|
|---5-----------------------------5----------8----------------------------|

|-------------------------------------------------------------------------|
|------------------------------6-6-6--------5-------------------6-6-6-----|
|--5-----5-------------------5-5-5-5--------5h7p5-------------5-5-5-5-----|
|--5h7p5-5-----5-----------0-----3-3----7-7-------6h7-7p5---3-3-3-3-3-----|
|----------5h7-5h7p5-5---5---------5----------------------5---------------|
|----------------------8--------------5-----------------------------------|

|-------------------------------------------------------------------------|
|-------5-----------6-6-6-------------------6h8p6---------5---------------|
|---------5---------5-5-5-------------------------------5-5h7p5-----------|
|-----7-----x---3-3-3-3-3-----7-7-------7---------7-------------6h7-------|
|-----7-------5-------------7-7-7---7-5---5-----------7-------------6h7-5-|
|-6-5---------------------5-------8-----------------5---------------------|

|-------------------------------------------------------------------------|
|---6h8p6-----------------5-----------------6---------------1-------------|
|---------5---------------5h7-------------5-5-------------2-2-2-----------|
|-7-------7-------------7-----6h7-------3-3-3-----------3-3---3-3---------|
|-----------5-5h7p5---0-----------6h7-5-------3h5p3-----3-------3---------|
|-------------------5-------------------------------5\1------------1/3----|

|-------------------------------------------------------------------------|
|------3-----------------------------6-6----------------------------------|
|------4-4-----------5-7/9\5---------5-5----------------5-7/9\5-----------|
|-5-5----5-5-----7-7-7-x-x-x-----0------------------7-7-7-----------------|
|-5-5------5-----7-7-7-5/7\3-3/5---5------5p3p0---------7-5/7\3-3/5-------|
|------------3/5--------------------------------3/5-----------------------|

|-------------------------------------------------------------------------|
|-6-6-6-6-6--------1-----------3------------------------------------------|
|-5-5-5-5-5------2-2-2-------4-4-4---------7-7-7-7-7-7-7-7--7/9-7\--------|
|-0-0-0-0-0----3-3---3-3---5-5---5-5-x---7-7-7-7-7-7-7-7-7--7/9-7\--------|
|--------------3-------3---5-------5-x-/5--5-5-5-5-5-5-5-5--5/7-5\--------|
|------------1-----------3------------------------------------------------|

|-------0-----------0-----------------------------------------------------|
|-------1-----------3------------6--------8-8---------------5-------------|
|-----2-2-2-------4-4-4--------5-5-5------8-8---7-----------5h7p5---------|
|---3-3---3-3---5-5---5-5----0-0-0-0------7-7---6-----6h7-7-------6h7-----|
|---3-------3---5-------5-/5---------5-/8-----7---7-------0-----------6h7-|
|-1-----------3-------------------------------------5---------------------|

|-------------------------------------------------0-----------------------|
|-----6h8p6---------------------------6~~~6-------------0-------------6---|
|-------------------------5-5---------5~~~5-------5h7p5-5p4-------5-5-5-5-|
|---7-------7-----5-----7-7-7---0---0-0~~~------7-----------------0-0-0-0-|
|-5-----------5h8-----7-------5---5---5~~~----7-------------5/7-5-----5-5-|
|-------------------5-----------------------5-----------------------------|

|---------5h7p5--------------5-5------------------------------------------|
|-6-------5------------------5--------------5-5---------1-----------------|
|-5-----5-------5----------5-5------------5-5-5---------2-----4--------5--|
|-0---x-7----------------0-0------------3-------------3-------5------0-0--|
|-5---x------------0h7-5----------5-5-5---------5\3---3-------5----5------|
|---5-----------------------------------------------1-----1/3----3--------|

|-------------------------------------------------------------------------|
|-6-----------1------3--------5-----------------6h8p6-6-------------------|
|-5-----------2------4------5-5h7p5---------------------------------------|
|-0-0-------3------5--------7-------6h7-------0---------5h7p5-------------|
|-----5\3---3------5------0-------------6h7-5-----------------5h7---------|
|---------1------3-----/5-------------------------------------------------|
 
|-------------------------------------------------------------------------|
|---------5-5---------------------1-------------3-------------------------|
|-----5---5-5---7-7-7-5-----------2-------------4---------7-7-7-7-7-7-7-7-|
|-----7---------7-7-x-x-5/7---3-3-3-3-------x-5-5-5-------7-7-7-7-7-7-7-7-|
|---0---7-----5-----5-3-x-x---3-3-3-3-3/5---x-5-5-5-5/7-5-5-5-5-5-5-5-5-5-|
|-5---------------------3/5-1-------------3-------------------------------|

|---------------------------------------5----------8-------------5--------|
|---------------1-----------3---------6-6-6--------8--------------5-------|
|-7/9-7-------2-2-2-------4-4-4-----5-5---5-5--------8-7-----5-----5------|
|-x---x-7\--3-3---3-3---5-5---5-5---0-------0----7---7-6-----7------7-----|
|-5/7-5-x---3-------3---5-------5-5-----------/8-----8-7-------0----------|
|-------5\1-----------3----------------------------------0-5--------------|

|-------5-------5-5-----5-----------------------------------------0-0-0-0-|
|--------6-----6--6------5-------------------6-6-6-6-6--------0---0-0-0-0-|
|---------5---5---5-------5-7h9p7p5----------5-5-5-5-5----0-5---4-4-4-4-4-|
|-----0----7-7----7----------------5h7-------0-0-0-0-0---5----------------|
|-0-5-----------------7----------------5h7-5------------0----------0-0-0-0|
|-------------------5----------------------------------5------------------|
            
Submit corrections

↑ Back to top | Tablatures and chords for acoustic guitar and electric guitar, ukulele, drums are parodies/interpretations of the original songs. You may use it for private study, scholarship, research or language learning purposes only