» » »

Jimi Hendrix - Hey Gypsy Boy Tabs

Artists:  A B C D E F G H I J K L M N O P Q R S T U V W X Y Z # 

Hey Gypsy Boy Tabs

(ver. 1) Click to play this song!
Jimi Hendrix
 Rating:
4.3/5 (20 votes)

 Hey Gypsy Boy  lessons Tabs too difficult? Try these video lessons and learn fast
 
                e|---------------------|-------1-------x-----------|-----------------------------|
B|-----x-------3-------|-------1-------x-----------|----------5-----------3---1--|
G|-----x-------4-------|-------2---2---x---7---7---|----------5---5-------4---2--|
D|-----x-------5-------|-------3---3---x---7---7---|------x---7---7---5---5---3--|
A|-----x-------x-------|-------x---x---x---5---5---|--------------x---x-------x--|
E|-5---x---3---3---3---|---1---1---1---x-----------|--5-----------5---3-------1--|
  (T . . . . . . . . . . . . . . . . )               (T . . . . . . . . . . . . )
e|-0---0-------------------------------------|---------------------------------
B|-1---1---3---3---3-------------------------|---------------------------------
G|-2---2---2---2---2----------2-------2------|-2-------------------------------   Measure doesn't end yet...
D|-3---3---0---0---0---2 h 5------5-------5--|-----5 p 2------------------2----
A|-------------------------------------------|------------3 p 0-----------0----
E|-------------------------------------------|--------------------3 p 0--------
                 
e|-------------|-------------------------------------|------------------------------
B|-------------|-------------------------------------|---------------5---- ~~~~~~---
G|-------------|---------------x---5  / 7---7  / 9---|--2 / 4b5-----------2-------4-  Measure doesn't end...
D|-----2-------|-- ~~~~~~ -----x---x /  ----x /  ----|------------------------------
A|-3-------3---|--3--------3---x---3/   5---5/   7---|------------------------------
E|-------------|-------------------------------------|------------------------------

e|-------------------x-------|------------1--3---1 h 3 p 1 p 0----------------
B|-------------------x-------|-----------------------------------3 p 1 p 0----
G|--2-----------2--------x---|---------2--------------------------------------
D|--2 h 4 h 5---2--------x---|--2 h 3-----------------------------------------
A|---------------------------|------------------------------------------------
E|---------------------------|------------------------------------------------
    Measure ends between bend V
e|----------------------------|--------------------------------------------|
B|-------------------0--1---3b| 5-----5br 3--------------------------------|
G|---2 p 0-----0--2-----------|--------------------------------------------|
D|----------3-----------------|--------------------------------------------|
A|----------------------------|--------------------------0--x .-' 5--5 h 7-|
E|----------------------------|--------------------0--3--------------------|
            bend up one-fourth DO NOT SLIDE first FRET TO THE fourth FRET!!!
e|--------------------------------------------------------------------------------|
B|--------------------------------------------------------------------------------|
G|-- ~~~~~~~~~-------5  h  7 p 5 h 7--5b 1/4--------------------------------------|
D|--5-------------7----------------------------7--5 h 7----------7----------------|
A|-------------------------------------------------------5 h 7--------------------|     Bend 1/4 up!
E|-------------------------------------------------------------------5---8b 1/4---|              
Submit corrections


        Hey Gypsy Boy  lessons Hard to play? Try these video lessons and learn fast Hey Gypsy Boy  lessons
        
↑ Back to top | Tablatures and chords for acoustic guitar and electric guitar, ukulele, drums are parodies/interpretations of the original songs. You may use it for private study, scholarship, research or language learning purposes only