» » »

Jimi Hendrix - Crash Landing Tabs

Artists:  A B C D E F G H I J K L M N O P Q R S T U V W X Y Z # 

Crash Landing Tabs

(ver. 1) Click to play this song!
Jimi Hendrix
 Rating:
4.3/5 (10 votes)

 Crash Landing  lessons Tabs too difficult? Try these video lessons and learn fast
 
                [Intro]

e#|--------6-----------|---------------------|---------------------|--------6---------6--|-------------6-----|
B#|------------9-------|---------------------|---------------------|-----------9---5-----|--5--(0)--5-----5--|
G#|--6h8-----------6---|-----------6h8-------|---------------------|--6h8----------------|-------------------|
D#|--------------------|-------6---------0---|--0--0---------------|---------------------|-------------------|
A#|--------------------|--9--------------6---|--7--6---------------|---------------------|-------------------|
E#|--------------------|---------------------|----------9---6------|---------------------|-------------------|

e#|----------------------|----------------------|--------------6-------|----6-----------6----|
B#|--(0)--4p6-------10---|8b--------8----7------|-----4-----------9----|-5----5--(0)--5------|
G#|------------6h8-------|---9---7-----6----5---|-5b------6h8----------|---------------------|
D#|----------------------|----------------------|----------------------|---------------------|
A#|----------------------|----------------------|----------------------|---------------------|
E#|----------------------|----------------------|----------------------|---------------------|

           ...Hey!
e#|----------------------|----------------------|
B#|--5--(0)-5/6--6--6/7--|--7/8-----------------|
G#|----------------------|----------------------|
D#|----------------------|----------------------|
A#|----------------------|----------------------|
E#|----------------------|----------------------|


                          You don't love me girl,

            Am



e#|---------------------4--|---------------------4---|--------------------4--|---------------------|
B#|---------------------4--|---------------------4b5-|--------------------4--|---------------------|
G#|-----1-----1-----1------|-----1-----1-----1-------|-----1-----1-----1-----|-----1-----1-----1---|
D#|-----2-----2-----2------|-----2-----2-----2-------|-----2-----2-----2-----|-----2-----2-----2---|
A#|--0--2--0--2--0--2------|--0--2--0--2--0--2-------|--0--2--0--2--0--2-----|--0--2--0--2--0--2---|
E#|--0-----0-----0---------|--0-----0-----0----------|--0-----0-----0--------|--0-----0-----0------|


e#|--5p4-------------------|-----4------------------|-----4------------------|-----4------------------|
B#|------5-----------------|-----4------------------|-----4b5----------------|-----4------------------|
G#|-----------1-----1------|--1--------1-----1------|--1---------1-----1-----|--1--------1-----1------|
D#|-----------2-----2------|--2--------2-----2------|--2---------2-----2-----|--2--------2-----2------|
A#|--------0--2--0--2--0---|--2-----0--2--0--2--0---|--2------0--2--0--2--0--|--2-----0--2--0--2--0---|
E#|--------0-----0-----0---|--------0-----0-----0---|---------0-----0-----0--|--------0-----0-----0---|

            Cut me free!

e#|-----4------------6------|------6--------6----------|-----6---------------------|--------4----------------|
B#|-----4b-------------9----|---------9--5-----5--(0)--|--5-----5--(0)-------------|--------4----------------|
G#|--1----------6h8------6--|--6h8---------------------|------------------1-----1--|-----1---------1-----1---|
D#|--2----------------------|--------------------------|------------------2-----2--|-----2---------2-----2---|
A#|--2----------------------|--------------------------|---------------0--2--0--2--|--0--2------0--2--0--2---|
E#|-------------------------|--------------------------|---------------0-----0-----|--0---------0-----0------|

                                                               Take your dirty sheets
e#|--------4----------------|--------4--------------4----|-------6------------------|-----------------6------|
B#|--------4b5--------------|--------4--------------4----|----------9---------------|--------------------9---|
G#|-----1---------1-----1---|-----1--------1-----1-------|--6h8--------6------------|--------------6h8-------|
D#|-----2---------2-----2---|-----2--------2-----2-------|--------------------6--0--|--0--0------------------|
A#|--0--2------0--2--0--2---|--0--2-----0--2--0--2-------|-----------------9-----6--|--7--6------------------|
E#|--0---------0-----0------|--0--------0-----0----------|--------------------------|---------9--6-----------|

e#|-----7--7--7--7--7--7--|--7--7--7--7--7--7-----|
B#|--9--9--9--9--9--9--9--|--9--9--9--9--9--9-----|
G#|-----------------------|-----------------------|    <(all other strings MUST be muted)
D#|-----------------------|-----------------------|
A#|-----------------------|-----------------------|
E#|-----------------------|-----------------------|


                             Well I must admit that you could be a pretty good artist

1:13     (There's a certain rhythm these are played with,
          I tried to space them out for ya so you can see.
          Better off just listening to it).


e#|--9--9--9--9------9--9---|---9--9------9--9----9--|---9--9--9--9--9-----|
B#|--8--8--8--8------8--8---|---8--8------8--8----8--|---8--8--8--8--8-----|
G#|--9--9--9--9------9--9---|---9--9------9--9----9--|---9--9--9--9--9-----|
D#|--9--9--9--9------9--9---|---9--9------9--9----9--|---9--9--9--9--9-----|
A#|-------------------------|------------------------|---------------------|
E#|-------------------------|------------------------|---------------------|


e#|--9--9-----9--9----9----|---9------9--9--9--9--9---|
B#|--8--8-----8--8----8----|---8------8--8--8--8--8---|
G#|--9--9-----9--9----9----|---9------9--9--9--9--9---|
D#|--9--9-----9--9----9----|---9------9--9--9--9--9---|
A#|------------------------|--------------------------|  (this keeps going when the solo is played on the
E#|------------------------|--------------------------|   second guitar, same rhythm).


GTR 11
e#|-------------------------|-----------------------------|-----------------------------|
B#|--12b13--(10)--10--------|-13h15--14h16--16b17r14--16--|-----------------------------|
G#|--------------------13~--|-----------------------------|-16--14~----13---------------|
D#|-------------------------|-----------------------------|------------14b--14--14------|
A#|-------------------------|-----------------------------|------------------------14~--|
E#|-------------------------|-----------------------------|-----------------------------|


       Well I do declare, you should be a rocket!

                                       (this is still played on the other guitar, same way as before)


e#|--9--------10--10b--10pb--|          |--9--9-----9--9-----9-----|--9--9--9--9--9--------|
B#|--9--------10--10b--10pb--|          |--8--8-----8--8-----8-----|--8--8--8--8--8--------|
G#|--8--------9---9n---9pb---|          |--9--9-----9--9-----9-----|--9--9--9--9--9--------|
D#|--------------------------|          |--9--9-----9--9-----9-----|--9--9--9--9--9--------|
A#|--------------------------|          |--------------------------|-----------------------|
E#|--------------------------|          |--------------------------|-----------------------|


e#|---------------------|
B#|---------------------|
G#|--4--4h5----0---4----|
D#|---------4-----------|
A#|---------------------|            spaced out, laid out, look at the sun fade out
E#|---------------------|


                                     e#|----------------------|-------------------------|
                                     B#|-----12-------8-------|-------------------------|
                                     G#|--13--------7---------|-7--8---10--9--8--8b-----|
                                     D#|----------------------|----------------------7--|
                                     A#|----------------------|-------------------------|
                                     E#|----------------------|-------------------------|

e#|-------------------------|
B#|-------------------------|
G#|--4--3--7--5--7--8---9---|   ...you almost made me leave my faith outside
D#|-------------------------|
A#|--6--5--9--7--9--10--10--|
E#|-------------------------|


             1:47 [solo]

e#|------------------------|-----------------------|-----------------------|-----------------------|
B#|--12--12b--12--12b--12--|--12b--12--10----------|--11h13--9bpb---12h13--|--13h15--12h13--13h15--|
G#|------------------------|----------------/11----|-----------------------|-----------------------|
D#|------------------------|-----------------------|-----------------------|-----------------------|
A#|------------------------|-----------------------|-----------------------|-----------------------|
E#|------------------------|-----------------------|-----------------------|-----------------------|

e#|--------------------------|------------------------|-----------------------|----------------------|
B#|------13------13------13--|--13--14--12--13---12b--|--10---12--10----------|----------------------|
G#|--15------15-------15-----|------------------------|--------------11b12r9--|--/9--(0)-------------|
D#|--------------------------|------------------------|-----------------------|----------------------|
A#|--------------------------|------------------------|-----------------------|----------------------|
E#|--------------------------|------------------------|-----------------------|----------------------|

e#|--------------------------|-------14b--14b--15-------|-------------------------|
B#|15b--15b--13--15b--15b----|--13~----------------15b--|--15b--13--15b--15b--15--|
G#|--------------------------|--------------------------|-------------------------|
D#|--------------------------|--------------------------|-------------------------|
A#|--------------------------|--------------------------|-------------------------|
E#|--------------------------|--------------------------|-------------------------|


e#|--------------------------|--------------------------|------------------------|-----------------------|
B#|--15b--15b--13--15b--15b--|--13--12--10~--15b--15pb--|-----13h14------13b--12-|-13b--12--13b----------|
G#|--------------------------|--------------------------|-15---------14----------|---------------/13-----|
D#|--------------------------|--------------------------|------------------------|-----------------------|
A#|--------------------------|--------------------------|------------------------|-----------------------|
E#|--------------------------|--------------------------|------------------------|-----------------------|

e#|------------------------------|
B#|------------------------------|
G#|--12h13--12h13--13b--12--10~--|
D#|------------------------------|
A#|------------------------------|
E#|------------------------------|


e#|---------------------------|------------------------------|----6---------------------------|
B#|--16b--16pb--16--16b--16b--|--16--16b---------------------|-----------9--------------------|
G#|--15b--15pb--15--15b--15b--|--15--15b---10--/10-----------|-6h8-------------6--------------|
D#|---------------------------|------------10--/10---3/5--5--|-----------------------9--------|
A#|---------------------------|----------------------4/6--6--|---------------------------6----|
E#|---------------------------|------------------------------|--------------------------------|

e#|-----------------------------|------------------------|--9--9--9--9------9------|--9-----9-----9------9---|
B#|-----------------------------|------9-----------------|--8--8--8--8------8------|--8-----8-----8------8---|
G#|--6h8------------------------|------------------------|--9--9--9--9------9------|--9-----9-----9------9---|
D#|-------0--0--0---------------|------------------------|--9--9--9--9------9------|--9-----9-----9------9---|
A#|-------6--7--6---------------|------------------------|-------------------------|-------------------------|
E#|-----------------9--6--------|------------------------|-------------------------|-------------------------|


              You don't love me anymore, babe


e#|-------------------------|
B#|-------------------------|
G#|--4--3--7--5--7--8---9---|
D#|-------------------------|
A#|--6--5--9--7--9--10--10--|
E#|-------------------------|

    2:30

e#|--9--9--9--9------9---|--9----9----9---9b---9--|--9--9--9--9--9-------|
B#|--8--8--8--8------8---|--8----8----8---8b---8--|--8--8--8--8--8-------|
G#|--9--9--9--9------9---|--9----9----9---9b---9--|--9--9--9--9--9-------|  (6x)
D#|--9--9--9--9------9---|--9----9----9---9b---9--|--9--9--9--9--9-------|
A#|----------------------|------------------------|----------------------|
E#|----------------------|------------------------|----------------------|


                             ...and I'll take it easy on you this time, sugar


e#|-------------------------|----------------------|
B#|-----12-------8----------|----------------------|
G#|--13--------7---------7--|--8---10--9--8--8b----|
D#|-------------------------|-----------------7----|
A#|-------------------------|----------------------|
E#|-------------------------|----------------------|

                                 You don't love me girl, you just wanna hurt me

e#|--------------------------|-----7b--------------------|----7b------12------14b--|--7b----12-------------|
B#|--------------------------|-----8b---------------7\---|----8b------12b-----15b--|--8b----12b------------|
G#|--4--3--7--5--7--8--9-----|------------7bpb------8b\--|-------------------------|-----------------------|
D#|--------------------------|------------8bpb-----------|-------------------------|-----------------------|
A#|--6--5--9--7--9--10--10---|---------------------------|-------------------------|-----------------------|
E#|--------------------------|---------------------------|-------------------------|-----------------------|


             GTR II
  


Am------open E-----Am------open E---Am--open E    (played on other guitar during this ^)



              Baby! Shoo, shoo


e#|--7--7---7--7--7---|              |-----------------------|--------------------|    
B#|--9--9---9--9--9---|   (3:23)     |-----------------------|--------------------|                       
G#|-------------------|              |-----------------------|--------------------|
D#|-------------------|              |--4--3--0--4--3--0--4--|--0--4--3--0--------|
A#|-------------------|              |-----------------------|--------------------|
E#|-------------------|              |-----------------------|--------------------|


                                                     Baby! Shoo, shoo, shoo

e#|-------------------------|                    |-----------------------|-----------------|
B#|-------------------------|                    |-----------------------|-----------------|
G#|--4--3--7--5--7--8---9---|   ...Oooh!         |-----------------------|-----------------|
D#|-------------------------|                    |--4--3--0--4--3--0--4--|--0--4--3--0-----|
A#|--6--5--9--7--9--10--10--|                    |-----------------------|-----------------|
E#|-------------------------|                    |-----------------------|-----------------|          
                                                 

e#|-------------------------|                                 |-----------------------|--------------------|
B#|-------------------------|                                 |-----------------------|--------------------|
G#|--4--3--7--5--7--8---9---|   Woah, slow sown, slow down    |-----------------------|--------------------|
D#|-------------------------|                                 |--4--3--0--4--3--0--4--|--0--4--3--0--------|
A#|--6--5--9--7--9--10--10--|                                 |-----------------------|--------------------|
E#|-------------------------|                                 |-----------------------|--------------------|


e#|-------------------------|    |--------------------|--------------------|
B#|-------------------------|    |--------------------|--------------------|
G#|--4--3--7--5--7--8---9---|    |--------------------|--------------------|
D#|-------------------------|    |--4--3--0--4--3--0--|--4--0--4--3--0-----|
A#|--6--5--9--7--9--10--10--|    |--------------------|--------------------|
E#|-------------------------|    |--------------------|--------------------|


e#|-------------------------|     |--------------------|-------------------|
B#|-------------------------|     |--------------------|-------------------|
G#|--4--3--7--5--7--8---9---|     |--------------------|-------------------|
D#|-------------------------|     |--4--3--0--4--3--0--|--4--0--4--3--0----|
A#|--6--5--9--7--9--10--10--|     |--------------------|-------------------|
E#|-------------------------|     |--------------------|-------------------|


e#|-------------------------|
B#|-------------------------|
G#|--4--3--7--5--7--8---9---|   Wooh!
D#|-------------------------|
A#|--6--5--9--7--9--10--10--|
E#|--6--5--9--7--9--10--10--|
            
Submit corrections


        Crash Landing  lessons Hard to play? Try these video lessons and learn fast Crash Landing  lessons
        
↑ Back to top | Tablatures and chords for acoustic guitar and electric guitar, ukulele, drums are parodies/interpretations of the original songs. You may use it for private study, scholarship, research or language learning purposes only