» » »

Jimi Hendrix - All Along The Watchower Tabs

Artists:  A B C D E F G H I J K L M N O P Q R S T U V W X Y Z # 

All Along The Watchower Tabs

(ver. 1) Click to play this song!
Jimi Hendrix
 Rating:
4.3/5 (15 votes)

 All Along The Watchower  lessons Tabs too difficult? Try these video lessons and learn fast
 
                                 Lick #1
                        Box #1
                       *Unison Bends*
                |-------9-----------------------------------------------------------------------|
                |------12b(full)---12b(full)r(12)p9----9----------------------------------------|
                |-------------------------------------------11----11b(full)---------------------|
                |-------------------------------------------------------------------------------|
                |-------------------------------------------------------------------------------|
                |-------------------------------------------------------------------------------|
                       1/3         1/3            1    1     3    2/3


                 Lick #2
                                   Box #2
                |-------------------------------------------------------------------------------|
                |-----------------------12---14b(full)(pick)r14---12---14b(full)----------------|
                |-----------9---11/13-----------------------------------------------------------|
                |------11-----------------------------------------------------------------------|
                |-------------------------------------------------------------------------------|
                |-------------------------------------------------------------------------------|
                        3   1    2  2    1   2/3              3    1    2/3


                 Lick #3
                        Box #2
                |-------------------------------------------------------------------------------|
                |-------14b(1,1/2)r(14)b(1,1/2)---14b(1,1/2)(pick)r14---12---14---12/14---12----|
                |-------------------------------------------------------------------------------|
                |-------------------------------------------------------------------------------|
                |-------------------------------------------------------------------------------|
                |-------------------------------------------------------------------------------|
                        2/3                       2/3               3    1    3    1  1   1


                 Lick #4
                    Box #1
                |-----------------------9-------------9-----------------------9-----------------|
                |-------------------9------12b(full)-----12--9-------------9-----12--9----------|
                |---9----11b(full)------------------------------11b(full)-----------------------|
                |-------------------------------------------------------------------------------|
                |-------------------------------------------------------------------------------|
                |-------------------------------------------------------------------------------|
                    1    2/3        1   1  2/3        1   4  1  2/3        1  1   4  1


                |-------------------------------------------------------------------------------|
                |-------------------------------------------------------------------------------|
                |---12p11p9------11b(full)--9~~~~~~~~~~~~~~~~~----------------------------------|
                |------------11-----------------------------------------------------------------|
                |-------------------------------------------------------------------------------|
                |-------------------------------------------------------------------------------|
                    4  3  1   3  2/3        1            
Submit corrections


        All Along The Watchower  lessons Hard to play? Try these video lessons and learn fast All Along The Watchower  lessons
        
↑ Back to top | Tablatures and chords for acoustic guitar and electric guitar, ukulele, drums are parodies/interpretations of the original songs. You may use it for private study, scholarship, research or language learning purposes only