» » »

Jets To Brazil - I Typed For Miles Tabs

Artists:  A B C D E F G H I J K L M N O P Q R S T U V W X Y Z # 

I Typed For Miles Tabs

(ver. 1) Click to play this song!
Jets To Brazil
 Rating:
4/5 (4 votes)

 I Typed For Miles lessons Tabs too difficult? Try these video lessons and learn fast
 
                I have the intro and the verses down but thats all I know... Maybe you can figure out the rest.

intro:dropped to D
------6--------6---------------2--------2----------------------------------
----6---6----6---6-----------2---2----2---2--------------------------------
--6--------6---------------2--------2--------------------------------------

verses:
-----6---------6-----------------------------------------------------------
---6---6-----6---6---------------------------------------------------------
-6---------6--------------------(2)----------------------------------------
"living in a hotel I must keep writing"

"like figure skating"
--666666---222222-----------666666--222222---------------------------------
--666666---222222-----------666666--222222---------------------------------
--666666---222222-----------666666--222222---------------------------------

back to intro
verse again
"leave me here to my devices"               "the call could come at any time"
--(6)--------------------(2)-------------------------(4)----------------------
--(6)--------------------(2)-------------------------(4)----------------------
--(6)--------------------(2)-------------------------(4)----------------------
                           (thats all i know) enjoy!
            
Submit corrections


        I Typed For Miles lessons Hard to play? Try these video lessons and learn fast I Typed For Miles lessons
        
↑ Back to top | Tablatures and chords for acoustic guitar and electric guitar, ukulele, drums are parodies/interpretations of the original songs. You may use it for private study, scholarship, research or language learning purposes only