» » »

Jets To Brazil - Chinatown Tabs

Artists:  A B C D E F G H I J K L M N O P Q R S T U V W X Y Z # 

Chinatown Tabs

(ver. 1) Click to play this song!
Jets To Brazil
 Rating:
4/5 (4 votes)

 Chinatown lessons Tabs too difficult? Try these video lessons and learn fast
 
                This song is dropped D ENJOY!

------------------------------------------------4--------------------------
----4---4h5/4-----2---0-------4---4h5/4-------2----------------------------
--0---0---------2---2-------0---0-----------2------------------------------

Verse 1: They use bass but you can use guitar if you want here it is:
-0000000-----222222--------------------------------------------------------
-0000000-----222222--------------------------------------------------------
-0000000-----222222--------------------------------------------------------
P.M_________________    When you get to the end, go with the drums into distortion

The same all the way to the chorus its just all distortion.

Outro: this is the way to do it with 1 guitar. with 2 just have one play a diff. riff
----------------------------------------------12-----------------------------
-------------------------------------------12----14---7----------------------
----4------2-------2------4--------------------------------------------------
--0------2---2---2------0----------------------------------------------------
0------2-------2------0------------------------------------------------------
            
Submit corrections


        Chinatown lessons Hard to play? Try these video lessons and learn fast Chinatown lessons
        
↑ Back to top | Tablatures and chords for acoustic guitar and electric guitar, ukulele, drums are parodies/interpretations of the original songs. You may use it for private study, scholarship, research or language learning purposes only