» » »

Jessica Andrews - There's More To Me Than You Tabs

Artists:  A B C D E F G H I J K L M N O P Q R S T U V W X Y Z # 

There's More To Me Than You Tabs

(ver. 1) Click to play this song!
Jessica Andrews
 Rating:
4/5 (4 votes)

 There's More To Me Than You lessons Tabs too difficult? Try these video lessons and learn fast
 
                Ok here's how it goes.  The song is Capo on the first fret, but all of 

the numbers in this are with no capo so when I write 1 it would be 0 with 

the capo on.  Ok easy enough?

b bend
r release
br bend then release
/slide up
\slide down
h hammer on
p pulloff

This riff from the intro in played throughout the song, at the chrous and 

the solo.

Intro:

E---------------|--------------|
B-9-9-11-11-11p9|-8-8-8h9-9-8--|
G-8-8-8--8--8---|-8-8-8---8-8--|
D---------------|--------------|
A---------------|--------------|
E---------------|--------------|

E-------------------------------|
B-9-9-11-11-11p9-6-6-6-6--------|
G-8-8-8--8--8----6-6-6-6-6-5-3-0|
D-------------------------------|
A-------------------------------|
E-------------------------------|

E-9br-8-10b-9br-8---------------|
B-----------------9b------------|
G-------------------------------|
D-------------------------------|
A-------------------------------|
E-------------------------------|


End Chorus One:

E-9br-8-10b-10b-12b-15b-|
B-----------------------|
G-----------------------|
D-----------------------|
A-----------------------|
E-----------------------|

End of Chorus Two:
		16(x8) mean play 16 8 times	

E-9br-8-9br8-9br8---|-9br-8-10br-10/12/16-16(x8)|
B-----------------9b|---------------------------|
G-------------------|---------------------------|
D-------------------|---------------------------|
A-------------------|---------------------------|
E-------------------|---------------------------|

E----16-16----16-16-----16-16---------------------
B-16b------16b------16b-------16r-----------------
G-------------------------------------------------
D-------------------------------------------------
A-------------------------------------------------
E-------------------------------------------------

Then Jessica comes back and says "There was always something..." 2:24

E--------------|
B-14h16---14\9-|
G--------------|
D--------------|
A--------------|
E--------------|

When she says "me" 2:28

E--------------------12b|
B-11br-9-9-11/13--------|
G-----------------------|
D-----------------------|
A-----------------------|
E-----------------------|

Then she says "This" 2:33
E----------------|-------------------|
B----------------|-------------------|
G----------------|----------5--------|
D----------------|----3-5/7--7-5\3---|
A-3-3-3-3-3-3-3-3|-3-5------------3-1|
E----------------|-------------------|


Outro:

E-9br-8-10b--9br-8----9br-8-10b-10b-12b-15b|
B------------------9b----------------------|
G------------------------------------------|
D------------------------------------------|
A------------------------------------------|
E------------------------------------------|

E--------------------------|
B-9-11-9\4-9-11-11/14-14/16|
G--------------------------|
D--------------------------|
A--------------------------|
E--------------------------|
            
Submit corrections


        There's More To Me Than You lessons Hard to play? Try these video lessons and learn fast There's More To Me Than You lessons
        
↑ Back to top | Tablatures and chords for acoustic guitar and electric guitar, ukulele, drums are parodies/interpretations of the original songs. You may use it for private study, scholarship, research or language learning purposes only