Home » J » Jesse Winchester »

Jesse Winchester - Payday Chords

Artists:  A B C D E F G H I J K L M N O P Q R S T U V W X Y Z # 

Payday Chords

(ver. 1) Click to play this song!
Jesse Winchester
[Intro]
   r e e e q   q     q   e e q   e e
E|-----------------|-----------------|
B|-----------------|-----------------|
G|-----------------|-3---------------|
D|-----3---3-------|-----5-3---------|
A|---5---5----~5---|---------5---3---|
E|-----------------|---------------6-|

| G | G |

[Verse]
G
Let's go out on the town tonight
   C                      G
My pockets are heavy with loot
G
And get drunk and nasty
    A                     D
And loud and aggresive to boot
G
I've been living from hand to mouth
         C                     G
For what must be three or four weeks
G
And I can tell you one thing, Jack
    D                        G
You listen when your stomach speaks

[Chorus]
C
I feel good
            G
Just like I knew that I would
    G
And all on account of that wine
                D
That I bought today
        G
And I'm smiling so sweet
    C                        G
For every little girl that I meet
         G
And some fools will try to tell you
       D                G
It's a sin to feel this way
         C
Yeah, it feels so funny
                        G
Having all this money today

   r e e e q   q     q   e e q   e e
E|-----------------|-----------------|
B|-----------------|-----------------|
G|-----------------|-3---------------|
D|-----3---3-------|-----5-3---------|
A|---5---5----~5---|---------5---3---|
E|-----------------|---------------6-|
(Play this riff over the following line)

D F     D F    D      Bb  G   F   D     C G
I think I feel like | dancing the night a-way


[Solo]

|| C7 | C7 | C7 | C7 ||
|| F7 | F7 | F7 | D7 ||

   r e e e q   q     q   e e q   e e
E|-----------------|-----------------|
B|-----------------|-----------------|
G|-----------------|-3---------------|
D|-----3---3-------|-----5-3---------|
A|---5---5----~5---|---------5---3---|
E|-----------------|---------------6-|

[Verse]
G
I got me this long-legged girl
   C                   G
To help me to spend my dough
G
A heart as big as your mama's stove
      A                     D
And a body like Brigitte Bardot
G
I'm all ready for some rock n roll
         C                 G
With the guitars turned up loud
G
And some fancy footwork
     D                   G
In a low-down, boozed-up crowd


[Chorus]
C
I feel good
            G
Just like I knew that I would
    G
And all on account of that wine
                D
That I bought today
        G
And I'm smiling so sweet
    C                        G
For every little girl that I meet
         G
And some fools will try to tell you
       D                G
It's a sin to feel this way
         C
Yeah, it feels so funny
                        G
Having all this money today

   r e e e q   q     q   e e q   e e
E|-----------------|-----------------|
B|-----------------|-----------------|
G|-----------------|-3---------------|
D|-----3---3-------|-----5-3---------|
A|---5---5----~5---|---------5---3---|
E|-----------------|---------------6-|
(Play this riff over the following line)

D F     D F    D      Bb  G   F   D     C G
I think I feel like | dancing the night a-way
D F     D F    D      Bb  G   F   D     C G
I think I feel like | dancing the night a-way

   r e e e q   q     q   e e q   e e
E|-----------------|-----------------|---
B|-----------------|-----------------|---
G|-----------------|-3---------------|---
D|-----3---3-------|-----5-3---------|---
A|---5---5----~5---|---------5---3---|---
E|-----------------|---------------6-|-3- (Hard stop on G)



[Chord Chart]


[Verse]

| G | G | C | G |
| G | G | A | D |
| G | G | C | G |
| G | G | D | G |


[Chorus]
| C | C | G | G |
| C | C | D | D |
| G | G | C | G |
| G | D | G | G |
            
Submit corrections

↑ Back to top | Tablatures and chords for acoustic guitar and electric guitar, ukulele, drums are parodies/interpretations of the original songs. You may use it for private study, scholarship, research or language learning purposes only