Home » J » Jesse Cook »

Jesse Cook - Air Tabs

Artists:  A B C D E F G H I J K L M N O P Q R S T U V W X Y Z # 

Air Tabs

(ver. 1) Click to play this song!
Jesse Cook
 Rating:
4.4/5 (7 votes)
                Ok, so this is Jesse Cooks song Air. There's also a chord variation that goes along with
those are added at the bottom. This first part is the lead guitar (acoustic). A very
friend of mine transcribed this song from ear. So the credit for this song does not go 
me, instead to him. But, if you think there's something wrong with it, or wish to praise

|---3-3--2-2--0-0---------------------------5-5-5----5-5-3-3-2-2--------|
|---0-0--0-0--0-0--------3---1---1---0---1--3-3-3----3-3-3-3-3-3-3s/4---|
|---0-0--0-0--0-0--4s/---2---2---2---2---2--2-2-2----2-2-2-2-2-2--------|
|------------------5-----2---2---2---2---2---------0--------------------|
|----------------------0---0---0---0---0------------------------------2-|
|-0---------------------------------------------------------------------|

|------0---0---0---0---0--------3-3--2-2--0-0---------------------------|
|-4---0---0---0---0---0---------0-0--0-0--0-0--------3---1--3---1---0-1-|
|-2-----------------------------0-0--0-0--0-0--5s/---2---2--2---2---2-2-|
|-4--1---2---1---------------------------------------2---2--2---2---2-2-|
|----------------3---2-----------------------------0---0------0---0-----|
|------------------------0---0------------------------------------------|

|---5-5--3-3--2-2-------------0---0---0---0---0---------------------|
|--------------------4-2-4---0---0---0---0---0----------------------|
|---5-5--4-4--2-2----2-2-2-------------------------5-5--5-5---5-----|
|-0------------------4-4-4--1---2---1-----------------7-----7---5-7-|
|------------------2--------------------3---2-----------------------|
|-----------------------------------------------0-------------------|

|--------------------------------------------------------------------------|
|--------------------5-----------------------------------------------------|
|-4-4---4---4----4h5-----4------------------5-5-5-5---5-------4-4-4-4---4--|
|-----5---7------------7---5-7-4-5---4--------------7---7-5-7---------7---7|
|-------------7--------------------7---7-6---------------------------------|
|--------------------------------------------------------------------------|

|--------------------------------------------------------------------------|
|--------------------------------------------------------------------------|
|-----5p4-----------4----------5-5-5-5---5--------4-4---4-4---4-------5----|
|-4h5-----7-5p4-4h5---7-5p4------------7---7-5-7------5-----7-----5h7------|
|---------------------------6-----------------------------------7----------|
|--------------------------------------------------------------------------|

|--------------------------------------------------------------------------|
|--------------------------------------------------------------------------|
|-4h5p4---4----------5-5-5-5---5--------4-4---4-4---4-------5p4---------4--|
|-------7---5-7-5-4----------7---7-5-7------5-----7-----4h5-----7-5-4h5----|
|-----------------------------------------------------7--------------------|
|--------------------------------------------------------------------------|
          Repeat Main Theme
|---------||---------------------------------------------------------------|
|---------||---------------------------------------------------------------|
|---------||-4-4-4-4--4-4--4-4-4-4--4-4-4-4--4h54---4-------------4-5-7-5--|
|-7-5p4---||--------------------------------------7---5-4---4-5-7----------|
|-------6-||----------------------------------------------7----------------|
|---------||---------------------------------------------------------------|

|----------------------------5-7-8-10-7-8----7-----------------------------|
|----------------------5-7-8--------------10---8-10-8-7s/12-12--12-12------|
|-4--------------4-5-7-----------------------------------------------------|
|---7-5-4--4-5-7-----------------------------------------------------------|
|--------------------------------------------------------------------------|
|--------------------------------------------------------------------------|

|--------------------------------------------------------------12-14-15-14-|
|-12-12-12--12-12-12--12-12-12--12-12-12--12-12-12----12-13-15-------------|
|--------------------------------------------------14----------------------|
|--------------------------------------------------------------------------|
|--------------------------------------------------------------------------|
|--------------------------------------------------------------------------|
            Tremelo Pick
|-12----12--|-12-12-12--12-12-12--10-10-10--12-12-12--10-10-10--8-8-8------|
|----15-----|--------------------------------------------------------------|
|-----------|--------------------------------------------------------------|
|-----------|--------------------------------------------------------------|
|-----------|--------------------------------------------------------------|
|-----------|--------------------------------------------------------------|

|-7-7-7-|------------------------------------------------------------------|
|-------|-10--7h8p7---7------------------------------------------7-8-10----|
|-------|-----------9---9p7----------------------------------7-9-----------|
|-------|-------------------9-2s/9-9-10-7-9----7------7-9-10---------------|
|-------|-----------------------------------10---9h10----------------------|
|-------|------------------------------------------------------------------|

|-7-8-10-8-7----7----------------------------------------------------------|
|------------10---8-10-8-7-8p7-8p7-8p7--12-12-12--12-12-12-----------------|
|----------------------------------------------------------------4-5-7-----|
|----------------------------------------------------------4-5-7-----------|
|--------------------------------------------------------------------------|
|--------------------------------------------------------------------------|

|---------------------------------7-8-10-8-7---------------7-8-10-12--10-8-|
|-5h7p5s/4--5-7-8-5--------7-8-10------------10-8-7-7-8-10-----------------|
|-------------------9-9--9-------------------------------------------------|
|--------------------------------------------------------------------------|
|--------------------------------------------------------------------------|
|--------------------------------------------------------------------------|

|-7--------10-8-7----8-7---------------------------------------------------|
|---10-8-7--------10-----10-8p7---8p7--------------------------------------|
|-------------------------------9-----8-8-9-9-6-6-8-8-4-4-5-5-4h5p4---4----|
|-------------------------------------------------------------------7------|
|--------------------------------------------------------------------------|
|--------------------------------------------------------------------------|

|----------||
|----------||
|----------||
|-4hp4-----||
|------5-7-||
|--------0-||

So, that's the end of the Lead guitar, now here are the chords ( some are just normal
should be known if you are attempting to play this song):
Am(4x) Em(4x)C7(4x)B7(4x)Am(4x)Em(4x)Eb(2x)C7(2x)B7(4x)
|-----|-----|-----|-----|-----|-----|-----|-----|-----|--------------------|
|--1--|-----|--5--|--4--|--1--|-----|--7--|--5--|--4--|----4-5-4----4-5-4--|
|--3--|-----|--3--|--2--|--3--|-----|--5--|--3--|--2--|----2-2-2----2-2-2--|
|--2--|--3--|--5--|--4--|--2--|--3--|--7--|--5--|--4--|----4-4-4----4-4-4--|
|-----|--2--|--3--|--2--|-----|--2--|--6--|--3--|--2--|--2--------2--------|
|-----|-----|-----|-----|-----|-----|-----|-----|-----|--------------------|

Well. That's all, hope you guys like it!
            
Submit corrections

↑ Back to top | Tablatures and chords for acoustic guitar and electric guitar, ukulele, drums are parodies/interpretations of the original songs. You may use it for private study, scholarship, research or language learning purposes only