Home » J » Jerry Reed »

Jerry Reed - Summertime Chords

Artists:  A B C D E F G H I J K L M N O P Q R S T U V W X Y Z # 

Summertime Chords

(ver. 1) Click to play this song!
Jerry Reed
[Intro]
e|---------------------------------------------------------------------------|
B|---------------------------------------------------------------------------|
G|----------4--3-----2--1--1-----0--------------------------------------4--3-|
D|----0--4--------4-----------2-----4-----3-----2--2--0-----------0--4-------|
A|-2-----------------------------------5-----4--------------0--2-------------|
E|-------------------------------------------------------2-------------------|
 
e|---------------------------------------------|
B|---------------------------------------------|
G|----2--1--1-----0----------------------------|
D|-4-----------2-----4-----3-----2-------------|
A|----------------------5-----4--------0--2--0-|
E|----------------------------------2----------|
 
[Verse 1]
      Bm     E         E7                     Bm7  Bm   B7
Summertime,       summertime and the livin’ is easy
             Em      Em7  G  G7                    F#7  G7  F#7
The fish are jumping,             and the cotton is high
             Bm     E7                               Bm      E  A7
Your daddy's rich,      and your mama's so damn good-looking
D           Bm    G              F#7
Hush, little baby,     hush little baby don't you
 
e|------------------------------------------------|
B|-3--3--3--2--3-----------0--0--0--0--0--3--2--0-|
G|-4--4--4--2--4-----------1--1--2--1--1--1--1--2-|
D|-4--4--4--2--4-----------2--2--2--2--2--2--2--2-|
A|-2--2--2--2--2-----------2--2--2--2--2--2--2--2-|
E|----------------2--1--0-------------------------|
   cry
 
e|------------------------------------------------|
B|-3--3--3--2--3-----------0--0--0--0--0--3--2--0-|
G|-4--4--4--2--4-----------1--1--2--1--1--1--1--2-|
D|-4--4--4--2--4-----------2--2--2--2--2--2--2--2-|
A|-2--2--2--2--2-----------2--2--2--2--2--2--2--2-|
E|----------------2--1--0-------------------------|
                                           One of these
 
[Verse 2]
             Bm        E E7                                       Bm7     Bm  B7
             mornings,        one of these mornings you'll rise up singing
           Em                        G G7                  F#7  G7  F#7
Yes you’ll spread your little wings,        and take to the sky
             Bm       E7                      Bm            E   A7
But til that morning,     ain’t nothing gonna harm you, not you
D           Bm    C#               F#7
Hush, little baby,      hush little baby don't you
 
[Outro]
e|---------------------------------------------------------------------------|
B|---------------------------------------------------------------------------|
G|----------4--3-----2--1--1-----0--------------------------------------4--3-|
D|----0--4--------4-----------2-----4-----3-----2--2--0-----------0--4-------|
A|-2-----------------------------------5-----4--------------0--2-------------|
E|-------------------------------------------------------2-------------------|
   cry
 
e|------------------------------------------|
B|----------------------------------------3-|
G|----2--1--1-----0-----------------------2-|
D|-4-----------2-----4-----3-----2--------4-|
A|----------------------5-----4--------0--2-|
E|----------------------------------2-------|
            
Submit corrections

↑ Back to top | Tablatures and chords for acoustic guitar and electric guitar, ukulele, drums are parodies/interpretations of the original songs. You may use it for private study, scholarship, research or language learning purposes only