Home » J » Jerry Reed »

Jerry Reed - East Bound And Down Tabs

Artists:  A B C D E F G H I J K L M N O P Q R S T U V W X Y Z # 

East Bound And Down Tabs

(ver. 2) Click to play this song!
Jerry Reed
EastBound and Down
Jerry Reed	
Guitarviper

Key: b^=bend up        p=pulloff
     bv=bend down     /\=slide up or down
     br=release bend

Lead
---------------------------------------------------------------------------------------------
--------------------------------------------------------------3------------------------------
--2b^-2br-0-2b^-----0-2b^-2b-2b-2br-0-2b^-0-2-0-2b^-0-2p0---0---5p3-0------------------------
----------------0h2---------------------------------------2-----------3-------------------7--
------------------------------------------------------------------------5p3-----5-7p5-7/9----
----------------------------------------------------------------------------5/7--------------

---------------------------------------------------------------------------------------------
-----------------------------------------3---------------------------------------------------
-------------------------------------------5p3-0-*------------------2-4-2--------------------
--9p7-9b^-9b-9b-9br-7-10-7-9-7-5-2-4-2-0----------5-4-2-2-2-4-4-4-5-------5-4-2-2-2-4-4-4-5--
---------------------------------------------------------------------------------------------
---------------------------------------------------------------------------------------------

---------------------------------------------------------------------------------------------
----------------------8-5-------3-5-----5----------------------------------------------------
--2-4-2-------------4---------4-----2/4---4p2-----------------2-4-2-------------------2-4-2--
--------5-4-2-4-5/7-------7bv-----------------5-2-2-2-4-4-4-5-------5-4-2-2-2-4-4-4-5-------5
---------------------------------------------------------------------------------------------
---------------------------------------------------------------------------------------------

---------------------------------------------------------------------------------------------
------------------------8-------go back to beginning until you reach the "*"-----------------
----------4-2-2-4-5-7-9-------0--------------------------------------------------------------
--4-2-4-2-----------------0h2----------------------------------------------------------------
---------------------------------------------------------------------------------------------
---------------------------------------------------------------------------------------------
            
Submit corrections

↑ Back to top | Tablatures and chords for acoustic guitar and electric guitar, ukulele, drums are parodies/interpretations of the original songs. You may use it for private study, scholarship, research or language learning purposes only