Home » J » Jerry Reed »

Jerry Reed - Pave Your Way Into Tomorrow Bass

Artists:  A B C D E F G H I J K L M N O P Q R S T U V W X Y Z # 

Pave Your Way Into Tomorrow Bass

(ver. 1) Click to play this song!
Jerry Reed
Tuning: EADG

G|----------------------------------------------------------------|
D|--------------------------------2-------------------------------|
A|3---------------5-------------------------------5---------------|
E|----------------------------------------------------------------|

G|----------------------------------------------------------------|
D|--------------------------------2-------------------------------|
A|3---------------5-------------------------------5---------------|
E|------------------------------------------------------------3---|

0:09

G|----------------------------------------------------------------|
D|--------------------------------2-------------------------------|
A|3---------------5-------------------------------5---------------|
E|----------------------------------------------------------------|

G|----------------------------------------------------------------|
D|--------------------------------2-------------------------------|
A|3---------------5-------------------------------5-------0---2---|
E|----------------------------------------------------3-----------|

G|----------------------------------------------------------------|
D|--------------------------------2-------2-----------------------|
A|3-------3-------5-------5-----------------------5-------5-------|
E|----------------------------------------------------------------|

G|----------------------------------------------------------------|
D|----------------------------------------------------------------|
A|3-------3-------1-------1---0-----------5---------------0---2---|
E|--------------------------------3---------------3---3-----------|

0:27

G|----------------------------------------------------------------|
D|----------------3-------3-------5-------------------------------| x2
A|3-------3-------------------------------5---------------0---2---|
E|------------------------------------------------3---3-----------|

G|----------------------------------------------------------------|
D|----------------3-------3-------5---------------5---------------|
A|3-------3-------------------------------5---------------5---2---|
E|----------------------------------------------------------------|

G|--------------------------------|
D|----------------3-------3-------|
A|3-------3-----------------------|
E|--------------------------------|

G|----------------------------------------------------------------|
D|--------------------------------2-------------------------------|
A|3---------------5-------------------------------5---------------|
E|------------------------------------------------------------3---|

0:47

G|----------------------------------------------------------------|
D|----------------3-------3-------5-------------------------------| x2
A|3-------3-------------------------------5---------------0---2---|
E|------------------------------------------------3---3-----------|

G|----------------------------------------------------------------|
D|----------------3-------3-------5---------------5---------------|
A|3-------3-------------------------------5---------------5---2---|
E|----------------------------------------------------------------|

G|----------------------------------------------------------------|
D|----------------3-------2---------------------------------------|
A|3-------3-------------------5---3---------------3---------------|
E|----------------------------------------3---------------3-------|

G|--------------------------------|
D|------------2---3-------2-------|
A|3-------3-------------------5---|
E|--------------------------------|

G|----------------------------------------------------------------|
D|--------------------------------2-------------------------------|
A|3---------------5-------------------------------5---------------|
E|----------------------------------------------------------------|

1:11

G|----------------------------------------------------------------|
D|--------------------------------2-------------------------------|
A|3---------------5-------------------------------5---------------|
E|----------------------------------------------------------------|

G|----------------------------------------------------------------|
D|--------------------------------2-------------------------------|
A|3---------------5-------------------------------5-------0---2---|
E|----------------------------------------------------3-----------|

G|----------------------------------------------------------------|
D|--------------------------------2-------2-----------------------|
A|3-------3-------5-------5-----------------------5-------5-------|
E|----------------------------------------------------------------|

G|----------------------------------------------------------------|
D|----------------------------------------------------------------|
A|3-------3-------1-------1---0-----------5---------------0---2---|
E|--------------------------------3---------------3---3-----------|

1:29

G|----------------------------------------------------------------|
D|----------------3-------3-------5-------------------------------|
A|3-----0-3-----5-------------------------5---------------0---2---|
E|------------------------------------------------3---3-----------|

G|----------------------------------------------------------------|
D|----------------3-------3-------5-------------------------------|
A|3-------3-------------------------------5---------------0---2---|
E|------------------------------------------------3---3-----------|

G|----------------------------------------------------------------|
D|----------------3-------3-------5---------------5---------------|
A|3-------3-------------------------------5---------------5-------|
E|----------------------------------------------------------------|

G|--------------------------------|
D|----------------3-------3-------|
A|3-------3-----------------------|
E|--------------------------------|

G|----------------------------------------------------------------|
D|--------------------------------2-------------------------------|
A|3---------------5-------------------------------5-------0---2---|
E|----------------------------------------------------3-----------|

1:49

G|----------------------------------------------------------------|
D|----------------3-------3-------5---------------5---------------|
A|3-------3-------------------------------5---------5-----0---2---|
E|----------------------------------------------------3-----------|

G|--------------------------------------------|
D|----------------3-------3-------5-----------| fades out here.
A|3-------3-------------------------------5---|
E|--------------------------------------------|            
Submit corrections

↑ Back to top | Tablatures and chords for acoustic guitar and electric guitar, ukulele, drums are parodies/interpretations of the original songs. You may use it for private study, scholarship, research or language learning purposes only