Home » J » Jerry Reed »

Jerry Reed - Im Not Playing Games Bass

Artists:  A B C D E F G H I J K L M N O P Q R S T U V W X Y Z # 

Im Not Playing Games Bass

(ver. 1) Click to play this song!
Jerry Reed
Tuning: EADG

G|------------------------------------------------------------------------------------------------|
D|------------------------------------------------------------------------------------------------|
A|------------------------------------------------------------------------------------------------|
E|------------------------------------------------------------------------------------------------|

G|------------------------------------------------3-----------------------------------------------|
D|------------------------3-----------------------------------------------1-----------------------|
A|1-----------------------------------------------------------------------------------------------|
E|------------------------------------------------------------------------------------------------|

G|------------------------------------------------------------------------------------------------|
D|1-----------------------0-----------------------------------------------3-----------------------|
A|------------------------------------------------3-----------------------------------------0-----|
E|------------------------------------------------------------------------------------1-----------|

0:18

G|------------------------3-----------------------------------------------------------------------|
D|------------3-----------------------3-----------------------3-----------1-----------------------|
A|1-----------------------------------------------1-----------------------------------1-----------|
E|------------------------------------------------------------------------------------------------|

G|------------------------------------------------------------------------------------------------|
D|1-----------1-----------0-----------0-----------------------5-----------------------------4-----|
A|------------------------------------------------3-----------------------3-----------5-----------|
E|------------------------------------------------------------------------------------------------|

0:29

G|------------------------------------------------------------------------------------------------|
D|5-----------------------5-----------5-----3-----1-----------------------1-----------3-----1-----|
A|------------5-----------------------------------------------1-----------------------------------|
E|------------------------------------------------------------------------------------------------|

G|------------------------------------------------------------------------------------------------|
D|0-----------------------0-----------------0-----1-----------1-----0-----------------------4-----|
A|------------0-----------------------3-----------------------------------3-----------5-----------|
E|------------------------------------------------------------------------------------------------|

G|------------------------------------------------------------------------------------------------|
D|5-----------5-----------3-----------3-----------1-----------------------------------5-----------|
A|------------------------------------------------------------1-----------3-----------------------|
E|------------------------------------------------------------------------------------------------|

G|------------------5-----7-----5-----------------|
D|3-----------7-----------------------8-----7-----|
A|------------------------------------------------|
E|------------------------------------------------|

0:48

G|------------------------------------------------------------------------------------------------|
D|5-----------------------5-----------5-----3-----1-----------------------1-----------3-----1-----|
A|------------5-----------------------------------------------1-----------------------------------|
E|------------------------------------------------------------------------------------------------|

G|------------------------------------------------------------------------------------------------|
D|0-----------------------0-----------------0-----1-----------1-----0-----------------------4-----|
A|------------0-----------------------3-----------------------------------3-----------5-----------|
E|------------------------------------------------------------------------------------------------|

G|------------------------------------------------------------------------------------------------|
D|5-----------5-----------3-----------3-----------1-----------------------1-----------1-----------|
A|------------------------------------------------------------1-----------------------------------|
E|------------------------------------------------------------------------------------------------|

G|------------------------------------------------------------------------------------------------|
D|------------------------------------------------------------------------------------------------|
A|1-----------------------------------------------------------------------------------------------|
E|------------------------------------------------------------------------------------------------|

1:10

G|------------------------------------------------3-----------------------------------------------|
D|------------------------3-----------------------------------------------1-----------------------|
A|1-----------------------------------------------------------------------------------------------|
E|------------------------------------------------------------------------------------------------|

G|------------------------------------------------------------------------------------------------|
D|1-----------------------0-----------------------------------------------3-----------------------|
A|------------------------------------------------3-----------------------------------------0-----|
E|------------------------------------------------------------------------------------1-----------|

1:21

G|------------------------3-----------------------------------------------------------------------|
D|------------3-----------------------3-----------------------3-----------1-----------------------|
A|1-----------------------------------------------1-----------------------------------1-----------|
E|------------------------------------------------------------------------------------------------|

G|------------------------------------------------------------------------------------------------|
D|1-----------1-----------0-----------0-----------------------5-----------------------------4-----|
A|------------------------------------------------3-----------------------3-----------5-----------|
E|------------------------------------------------------------------------------------------------|

1:33

G|------------------------------------------------------------------------------------------------|
D|5-----------------------5-----------5-----3-----1-----------------------1-----------3-----1-----|
A|------------5-----------------------------------------------1-----------------------------------|
E|------------------------------------------------------------------------------------------------|

G|------------------------------------------------------------------------------------------------|
D|0-----------------------0-----------------0-----1-----------1-----0-----------------------4-----|
A|------------0-----------------------3-----------------------------------3-----------5-----------|
E|------------------------------------------------------------------------------------------------|

G|------------------------------------------------------------------------------------------------|
D|5-----------5-----------3-----------3-----------1-----------1-----0-----------------5-----------|
A|------------------------------------------------------------------------3-----------------------|
E|------------------------------------------------------------------------------------------------|

G|------------------5-----7-----5-----------------|
D|3-----------3-----------------------8-----7-----|
A|------------------------------------------------|
E|------------------------------------------------|

1:52

G|------------------------------------------------------------------------------------------------|
D|5-----------------------5-----------5-----3-----1-----------------------1-----------3-----1-----|
A|------------5-----------------------------------------------1-----------------------------------|
E|------------------------------------------------------------------------------------------------|

G|------------------------------------------------------------------------------------------------|
D|0-----------------------0-----------------0-----1-----------1-----0-----------------------4-----|
A|------------0-----------------------3-----------------------------------3-----------5-----------|
E|------------------------------------------------------------------------------------------------|

G|------------------------------------------------------------------------------------------------|
D|5-----------5-----------3-----------3-----------1-----------------------1-----------1-----------|
A|------------------------------------------------------------1-----------------------------------|
E|------------------------------------------------------------------------------------------------|

G|------------------------------------------------------------------------7-----5-----------------|
D|------------------------------------------------------------------------------------8-----7-----|
A|1-----------------------------------------------------------------------------------------------|
E|------------------------------------------------------------------------------------------------|

2:14

G|------------------------------------------------------------------------------------------------|
D|5-----------------------5-----------5-----3-----1-----------------------1-----------3-----1-----|
A|------------5-----------------------------------------------1-----------------------------------|
E|------------------------------------------------------------------------------------------------|

G|------------------------------------------------------------------------------------------------|
D|0-----------------------0-----------------0-----1-----------1-----0-----------------------4-----|
A|------------0-----------------------3-----------------------------------3-----------5-----------|
E|------------------------------------------------------------------------------------------------|

G|------------------------------------------------------------------------------------------------|
D|5-----------------------3-----------3-----------1-----------1-----0-----------------5-----------|
A|------------5-----------------------------------------------------------3-----------------------|
E|------------------------------------------------------------------------------------------------|

G|------------------5-----7-----5-----------------|
D|3-----------7-----------------------8-----7-----|
A|------------------------------------------------|
E|------------------------------------------------|

G|------------------------------------------------------------------------------------|
D|5-----------------------5-----------5-----3-----1-----------------------1-----------| fades out here.
A|------------5-----------------------------------------------1-----------------------|
E|------------------------------------------------------------------------------------|            
Submit corrections

↑ Back to top | Tablatures and chords for acoustic guitar and electric guitar, ukulele, drums are parodies/interpretations of the original songs. You may use it for private study, scholarship, research or language learning purposes only