Home » J » Jerry Cantrell »

Jerry Cantrell - Feel The Void Tabs

Artists:  A B C D E F G H I J K L M N O P Q R S T U V W X Y Z # 

Feel The Void Tabs

(ver. 1) Click to play this song!
Jerry Cantrell
[Intro Guitar Parts]
 
    (0:57) with delay
Eb|------------5----------|---------5br6---------|------------------------|
Bb|-----5-----------------|---------------5------|------------7-----------|
Gb|--6--------------------|------------------6---|-----8------------------|
Db|-----------------------|----------------------|-9----------------------|
Ab|-----------------------|----------------------|------------------------|
Db|-----------------------|----------------------|------------------------|
 
    (1:12)
Eb|------------5-----7b8--|----------------7br8--|-------------10b11------|
Bb|-------5---------------|----------------------|-------7----------------|
Gb|-5/6-------------------|--------------6-------|---8--------------------|
Db|-----------------------|----------------------|-9----------------------|
Ab|-----------------------|----------------------|------------------------|
Db|-----------------------|----------------------|------------------------|
 
 
 
 
[Verse 1]
 
    vocals start on beat 2
Eb|-------------------|------------------|---------------|--------------|
Bb|-------------------|------------------|---------------|--------------|
Gb|-------------------|------------------|---------------|--------------|
Db|-------------------|------------------|---------------|--------------|
Ab|-------------------|-4----------------|------------10-|-9------------|
Db|-------------------|-4----------------|------------10-|-9------------|
        "I can feel my  life"
        "Makes me wanna cry"
        "How bad I feel inside"                             
 
 
    Second guitar plays (at 1:55)
Eb|----------5---------|-------------5b6-----|----------------|
Bb|----5---------------|----------------5br6-|------------7---|
Gb|-6-----6------------|-----------6---------|--------8-------|
Db|--------------------|---------------------|------9---------|
Ab|--------------------|---------------------|----------------|
Db|--------------------|---------------------|----------------|
 
Eb|-10b11----------------------|
Bb|----------------------------|
Gb|----------------------------|
Db|----------------------------|
Ab|----------------------------|
Db|----------------------------|
                "Like I wanna"
 
 
[Chorus]
 
    play 2x
Eb|---------------------------------|---------------------------------|
Bb|---------------------------------|---------------------------------|
Gb|---------------------------------|---------------------------------|
Db|-0---0---0---0---0---1---2---4---|-----4---4---4---4---3---2---1---|
Ab|-0---0---0---0---0---1---2---4---|-----4---4---4---4---3---2---1---|
Db|-0---0---0---0---0---1---2---4---|-----4---4---4---4---3---2---1---|
   "Die...                                            Can't  explain"
           "won't  a-   pologize"
 
 
 
Eb|---------------------------------|---------------------------------|
Bb|---------------------------------|---------------------------------|
Gb|-----------------------------4---|---------------------------------|
Db|-0---0---0---0---0---0-------4---|---------------------------------|
Ab|-0---0---0---0---0---0-------2---|---------------------------------|
Db|-0---0---0---0---0---0-----------|---------------------------------|
              "Re-entry       blown, while I was gone"
 
 
Eb|---------------------------------|---------------------------------|
Bb|---------------------------------|---------------------------------|
Gb|---------2-----------2-----------|---------------------------------|
Db|-4-------2-------4---2-------0---|---------------------------------|
Ab|-4-------0-------4---0-------0---|---------------------------------|
Db|-4---------------4-----------0---|---------------------------------|
         "tilt of axis        changed"
 
 
 
[Verse 2]
 
    vocals start on beat 2
Eb|-------------------|------------------|---------------|--------------|
Bb|-------------------|------------------|---------------|--------------|
Gb|-------------------|------------------|---------------|--------------|
Db|-------------------|------------------|---------------|--------------|
Ab|-------------------|-4----------------|------------10-|-9------------|
Db|-------------------|-4----------------|------------10-|-9------------|
         "Destination unknown"
         "Wreckage in tow"
         "Depression grows"
 
 
 
    Second guitar plays (at 1:55)
Eb|----------5b6-------|-------------5br6----|----------------|
Bb|----5---------------|---------------------|------------7---|
Gb|-6------------------|-----------6---------|--------8-------|
Db|--------------------|---------------------|------9---------|
Ab|--------------------|---------------------|----------------|
Db|--------------------|---------------------|----------------|
 
Eb|-10b11----------------------|
Bb|----------------------------|
Gb|----------------------------|
Db|----------------------------|
Ab|----------------------------|
Db|----------------------------|
                    "I have no"
 
 
 
[Chorus 2]
 
    play 2x
Eb|---------------------------------|---------------------------------|
Bb|---------------------------------|---------------------------------|
Gb|---------------------------------|---------------------------------|
Db|-0---0---0---0---0---1---2---4---|-----4---4---4---4---3---2---1---|
Ab|-0---0---0---0---0---1---2---4---|-----4---4---4---4---3---2---1---|
Db|-0---0---0---0---0---1---2---4---|-----4---4---4---4---3---2---1---|
   "home...                                                  Conse-"
   "quences on   accepted      role"
 
 
 
Eb|---------------------------------|---------------------------------|
Bb|---------------------------------|---------------------------------|
Gb|-----------------------------4---|---------------------------------|
Db|-0---0---0---0---0---0-------4---|---------------------------------|
Ab|-0---0---0---0---0---0-------2---|---------------------------------|
Db|-0---0---0---0---0---0-----------|---------------------------------|
              "Discontented seeds,  loveless garden thrown"
 
 
Eb|---------------------------------|---------------------------------|
Bb|---------------------------------|---------------------------------|
Gb|---------2-----------2-----------|---------------------------------|
Db|-4-------2-------4---2-------0---|---------------------------------|
Ab|-4-------0-------4---0-------0---|---------------------------------|
Db|-4---------------4-----------0---|---------------------------------|
         "bitter crop to reap"
 
 
    play 2x
Eb|---------------------------------|---------------------------------|
Bb|---------------------------------|---------------------------------|
Gb|---------------------------------|---------------------------------|
Db|-0---0---0---0---0---1---2---4---|-----4---4---4---4---3---2---1---|
Ab|-0---0---0---0---0---1---2---4---|-----4---4---4---4---3---2---1---|
Db|-0---0---0---0---0---1---2---4---|-----4---4---4---4---3---2---1---|
                                                            "Under-"
   "-standing hard-pressed won"
 
Eb|---------------------------------|---------------------------------|
Bb|---------------------------------|---------------------------------|
Gb|-----------------------------4---|---------------------------------|
Db|-0---0---0---0---0---0-------4---|---------------------------------|
Ab|-0---0---0---0---0---0-------2---|---------------------------------|
Db|-0---0---0---0---0---0-----------|---------------------------------|
         "Through   me     you feel  the void         from"
 
Eb|---------------------------------|---------------------------------|
Bb|---------------------------------|---------------------------------|
Gb|---------2-----------2-----------|---------------------------------|
Db|-4-------2-------4---2-------0---|---------------------------------|
Ab|-4-------0-------4---0-------0---|---------------------------------|
Db|-4---------------4-----------0---|---------------------------------|
   "where the  sad   sounds   come"
 
 
 
[Bridge]
 
Eb|-----------------|---------------|-----------------|----------------|
Bb|-----------------|---------------|-----------------|----------------|
Gb|-----------------|---------------|-----------------|----------------|
Db|-----------------|---------------|-----------------|----------------|
Ab|-----------------|---------------|-----------------|----------------|
Db|-10b11-----------|---feedback----|-----------------|----------------|
 
 
    this goes into a lot of random noises, then guitar plays at 5:22
Eb|----------------------|---------------------|
Bb|----------------------|---------------------|
Gb|----------------------|---------------------|
Db|--10----9-------------|---------------------|
Ab|--10----9-------------|---------------------|
Db|--10----9-------------|---------------------|
 
 
 
[Last Chorus]
 
    play 2x
Eb|---------------------------------|---------------------------------|
Bb|---------------------------------|---------------------------------|
Gb|---------------------------------|---------------------------------|
Db|-0---0---0---0---0---1---2---4---|-----4---4---4---4---3---2---1---|
Ab|-0---0---0---0---0---1---2---4---|-----4---4---4---4---3---2---1---|
Db|-0---0---0---0---0---1---2---4---|-----4---4---4---4---3---2---1---|
   "Aaaaah........................"
   "Aaaaah........................"
 
Eb|---------------------------------|---------------------------------|
Bb|---------------------------------|---------------------------------|
Gb|-----------------------------4---|---------------------------------|
Db|-0---0---0---0---0---0-------4---|---------------------------------|
Ab|-0---0---0---0---0---0-------2---|---------------------------------|
Db|-0---0---0---0---0---0-----------|---------------------------------|
           "Free re-  turn     alone in time to"
 
 
Eb|---------------------------------|---------------------------------|
Bb|---------------------------------|---------------------------------|
Gb|---------2-----------2-----------|---------------------------------|
Db|-4-------2-------4---2-------0---|---------------------------------|
Ab|-4-------0-------4---0-------0---|---------------------------------|
Db|-4---------------4-----------0---|---------------------------------|
   "see   the      sun go     black"
 
 
 
[Outro]
 
    (6:42)
Eb|---------------------------------|---------------------------|
Bb|---------------------------------|---------------------------|
Gb|---------------------------------|---------------------------|
Db|-4---4---3---3---2---2---1---0---|---------------------------|
Ab|-4---4---3---3---2---2---1---0---|---------------------------| ring & fade out
Db|-4---4---3---3---2---2---1---0---|---------------------------|
    "Aaaaah........................"
            
Submit corrections

↑ Back to top | Tablatures and chords for acoustic guitar and electric guitar, ukulele, drums are parodies/interpretations of the original songs. You may use it for private study, scholarship, research or language learning purposes only