» » »

Jerrod Niemann - Blue Bandana Tabs

Artists:  A B C D E F G H I J K L M N O P Q R S T U V W X Y Z # 

Blue Bandana Tabs

(ver. 1) Click to play this song!
Jerrod Niemann
 Rating:
3/5 (24 votes)

 Blue Bandana  lessons Tabs too difficult? Try these video lessons and learn fast
 
                Intro: The base chords are E(Twice) and A(Twice) for picking.
       If you just want to strum, play E(Twice), D, then A.
e|---x-----0--------2--------0-----------------------------------------------|
B|---0--------0--------0--------0------0-------------------------------------|
G|---1-----------------------------------------------------------------------|
D|---2-----------2--------2--------2-----------------------------------------|
A|---0h2---------------------------------------------------------------------|
E|---x-----------------------------------------------------------------------|
                       ^(E Base Chord)^
e|---x-----0--------2--------0-----------------------------------------------|
B|---0--------0--------0--------0------0-------------------------------------|
G|---1-----------------------------------------------------------------------|
D|---2-----------2--------2--------2-----------------------------------------|
A|---0h2---------------------------------------------------------------------|
E|---x-----------------------------------------------------------------------|
                        ^(E Base Chord)^
e|---------------------------------------------------------------------------|
B|----------0h2--2--0--------------------------------------------------------|
G|---------------------2-----------------------------------------------------|
D|---0--0-----------------2--------------------------------------------------|
A|---------------------------------------------------------------------------|
E|---------------------------------------------------------------------------|
                        ^(A Base Chord)^
e|---------------------------------------------------------------------------|
B|-------------0--2--0-------------------------------------------------------|
G|----------2-----------2----------------------------------------------------|
D|-------------------------2-------------------------------------------------|
A|---2-/-4-------------------------------------------------------------------|
E|---------------------------------------------------------------------------|
                        ^(A Base Chord)^

      Intro Side Note: Having looked at a live version of this, it looks like he 
      plays something that looks like a base chord of a D on the 3rd section of the 
      intro. Haven't really figured out exactly what he's playing, because all the 
      notes line up with an A, and it makes more sense and sounds better to hold an
      A there when you're actually picking it. Strumming sounds better with a D.



   (Intro Riff)
She was dancing in a sundress on a Carolina sunset on the last night of Merle Fest
   (Intro Riff)
Told me she ain't missed one since the summer she turned 18
   (Intro Riff)
hit that road on a gyspy dream Hitched a ride in a beat up van following her favorite band

Chorus
                E
And now she's a Bonaroo baby, she's Coachella crazy,
          D                              A
She'll be Folking out in Newport, you've probably seen her before
E
Up at Lollapalooza, In the muddy Wakarusa,
          D                      A
She'll be at the Hangout down in Alabama,
     D                A                  E
Just look for the girl in the blue bandana
      D          A
whoooooa    whooooa

          E
She had a flower in her hair, a little smoke was in the air
         D                              (Don't strum)
We were chillin' in some lawnchairs saying we wish we could've seen Woodstock
     E
Told me she was leaving in the morning, heading down to New Orleans
     D                                 A
Said boy, you oughta come along and I knew I shoulda gone

Chorus
                E
She's a Bonaroo baby, she's Coachella crazy,
          D                              A
She'll be Folking out in Newport, you've probably seen her before
E
Up at Lollapalooza, In the muddy Wakarusa,
          D                      A
She'll be at the Hangout down in Alabama,
     D                A                  E
Just look for the girl in the blue bandana
      D          A
whoooooa    whooooa




F#                          A
Several thousand faces in a crowd
F#                                   A
And I know she's out there somewhere jamming out


Chorus
                E
And Now she's a Bonaroo baby, she's Coachella crazy,
          D                              A
She'll be Folking out in Newport, you've probably seen her before
E
Up at Lollapalooza, In the muddy Wakarusa,
          D                      A
She'll be at the Hangout down in Alabama,
     D                A                  E
Just look for the girl in the blue bandana
      D          A
whoooooa    whooooa


outro (one strum)
E                           E
Now I got a beat up van and I'm driving across this land
D                     A
Looking for a blue bandana            
Submit corrections


        Blue Bandana  lessons Hard to play? Try these video lessons and learn fast Blue Bandana  lessons
        
↑ Back to top | Tablatures and chords for acoustic guitar and electric guitar, ukulele, drums are parodies/interpretations of the original songs. You may use it for private study, scholarship, research or language learning purposes only